Give Kudos?
Are you sure you want to give kudos to WildCard76?

Add To Songbook?
Are you sure you want to add this song to your songbook?


2,615 bands | 34,294 songs
Search: Register FREE! | Login
Browse Songs:
Browse Bands:
Tool Panel
Discuss This Song

1 2 3 4 5





Daryle Singletary - I Let Her Lie (Intro)
Submitter: WildCard76 (217) on 12/11/02
Month Views: 41 | Total Views: 6,287
Moderator: petstupid | Report This Song?
Song Tools

Comment

Songbook

Kudos

Show Chords

Print

  			          
E---4h7--------0h4--0------------------------
B----------------------5-----0--------4------
G-----------4-------------4--------4---------
D--------2-----------------------------------
A-------------------------------0------------
E----------------------------------------5---
   
E--------0h4--0------------------------------
B----------------0--4--5--4------------------
G-----4----------------------4--6------------
D---2----------------------------------------
A--------------------------------------------
E--------------------------------------------
 Comments (click here to add a non-facebook comment)
Home | FAQs | Privacy | Terms | Advertise | Contact
Top 100 Tab Sites