Give Kudos?
Are you sure you want to give kudos to axehappy?

Add To Songbook?
Are you sure you want to add this song to your songbook?


2,668 bands | 34,785 songs
Search: Register FREE! | Login
Browse Songs:
Browse Bands:
Tool Panel
Discuss This Song

1 2 3 4 5





Daryle Singletary - Too Much Fun (Lead)
Submitter: axehappy (115) on 3/22/02
Month Views: 32 | Total Views: 6,253
Moderator: petstupid | Report This Song?
Song Tools

Comment

Songbook

Kudos

Show Chords

Print

Darryl Singletary - Too Much Fun (lead)

By axehappy - axehappy at countrytabs.com

Tune guitar down a full step.

***********************************************************************

h   =   hammer-on                            b   =   bend

\   =   slide down                           p   =   pulloff

pbr =   pre-bend & release                   /   =   slide up

***********************************************************************



INTRO (parts of this are used throughout the song as fills)


D--------------------------------------------------------------
A--------------------------------------------------------------
F---------------------4-6\4-2----4-6\4-2------2-----4-6\4-2----
C---------------------5-7\5-4----5-7\5-4------------5-7\5-4----
G-----0--------0--0-0-0-0----0-0-0-0----0-0-3b--0-0-0-0----0-0-
D--0h3-3p2p0-3b------------------------------------------------


D--------------------------------------------------------------
A--------------------------------------------------------------
F--0-0-0----------------4-6\4-2----4-6\4-2------2-----4-6\4-2--
C--2-1-0----------------5-7\5-4----5-7\5-4------------5-7\5-4--
G-------3p2p0----0--0-0-0-0----0-0-0-0----0-0-3b--0-0-0-0------
D------------0-3b----------------------------------------------


D--5--------------------------|
A--5--------------------------|
F---7pbr-p5-7-5b--------------|
C----------7----7p6p5---------|
G--------------------7-5-6-7--|
D-----------------------------|



LEAD SOLO


D--5-------5------5----------------------------------------------------
A--5-------5------5----------------------------------------------------
F---8p7p5---8p7p5--8p7p5-5-5b------------------------------------------
C--------7-------7------7----7p6p5-------------------------5p0-6p0-7p0-
G---------------------------------7-7-5-5-0-3p0-5p0-6p0-7p0------------
D--------------------------------------8-------------------------------


D------------------------|
A-------------8----------|
F--5-5b----7/9-9\7-5-7---|
C------7p5---------------|
G---------7--------------|
D------------------------|

 Comments (click here to add a non-facebook comment)
Home | FAQs | Privacy | Terms | Advertise | Contact
Top 100 Tab Sites