Give Kudos?
Are you sure you want to give kudos to matellmon?

Add To Songbook?
Are you sure you want to add this song to your songbook?


2,712 bands | 35,098 songs
Search: Register FREE! | Login
Browse Songs:
Browse Bands:
Tool Panel
Discuss This Song

1 2 3 4 5



David Kersh - It's Out of My Hands (Chord)
Album: If I Never Stop Loving You (1998)
Submitter: matellmon (76) on 2/7/02
Month Views: 27 | Total Views: 4,897
Moderator: pumaboy2005 | Report This Song?
Song Tools

Comment

Songbook

Kudos

Show Chords

Print

Intro:
     C        AmG                 F                                 F                  G
-------------------------------------------------------------------1----------------------1------------
----------1------------1------------1------------0------------1---------1-------------1----------0-----
-------------0------------0------------2------------0------2---------2-----2------2-----------------0--
-------2------------0------------2----------------------3-----------------------3----------------------
----3------------2------------0---------------2------------------------------------------------2-------
--------------------------------------------3------------------------------------------------3---------

The finger progression changes a little with the lyrics.  Play this
progression with the verses.
     C                         Am       G                 F                     G
-----------------------------------------------------------------------------------------------------
----------1------------1------------1---------0------------1-------------1----------0-------------0--
-------------0------------0------------2---------0------2-----2------2------0----------0------0-----0
-------2------------0------------2-------------------3------------3----------------------------------
----3------------2------------0------------2-------------------------------------2----------2--------
-----------------------------------------3-------------------------------------3---------------------

Verse I
                Em7                    Am        G                F
There was no moon that night but the light in your eyes
                  G             Em7         C
pulled at my heart and turned the tides.
          Em7            Am       G        F
I was carried away now all I do is pray
                            G           Em7    C
that someday you stay right by my side.

Chorus
                             F                         G
But it's out of my hands I have no control
                            C                    Em7      Am
Of where love will lead us on this winding road.
                         F                      G
But if I had my way I'd be your man
                C           Em7 Am
I give all I have and all I can.
                   F                        G
So I'm lettin go cause inside I know
                     C
It's out of my hands.

Verse II
          Em7              Am        G           F
In the past I'd hold on thinkin I was so strong
           G       Em7    C
only to find I was so wrong.
                   Em7           Am                  G                 F

There ain't a thing I can do to make you feel this way too
                           G            Em7  C
But somehow my heart will carry on.

Chorus Repeat

Verse III
F                G        F                   G
Maybe this mystery will never be clear to me.

Chorus Repeat
 
 Comments (click here to add a non-facebook comment)
Home | FAQs | Privacy | Terms | Advertise | Contact
Top 100 Tab Sites