Give Kudos?
Are you sure you want to give kudos to axehappy?

Add To Songbook?
Are you sure you want to add this song to your songbook?


2,680 bands | 34,871 songs
Search: Register FREE! | Login
Browse Songs:
Browse Bands:
Tool Panel
Discuss This Song

1 2 3 4 5





Diamond Rio - Love A Little Stronger (Intro)
Album: Love a Little Stronger (1994)
Submitter: axehappy (131) on 5/4/02
Month Views: 34 | Total Views: 5,856
Moderator: bcshuffle | Report This Song?
Song Tools

Comment

Songbook

Kudos

Show Chords

Print

Diamond Rio - Love A Little Stronger (intro)

By axehappy - axehappy at countrytabs.com

I think this is played with a B-Bender or something, but I've tabbed
it to use normal bends. It's playable, just a bit more difficult.

***********************************************************************

b   =   bend                          pbr   =   pre-bend & release

p   =   pulloff                       /     =   slide up

h   =   hammer-on                     

***********************************************************************



E---0-0-2b-0-0-0---------------------------------0-0-2b-0-0-0----------
B----------2-2---3pbr-p2-----------------5---5----------2-2---3pbr-p2--
G--2-1---------4--------2---1-2----1-2---4h6-4--2-1---------4--------2-
D--------------------------4---0--4---4/6------------------------------
A----------------------------------------------------------------------
E----------------------------------------------------------------------


E--------7---5-4------------|
B-------------------5-------|
G--------6b-4b-4---2-1------|
D--4-6-7----------2---2/4---|
A---------------------------|
E---------------------------|

 Comments (click here to add a non-facebook comment)
Home | FAQs | Privacy | Terms | Advertise | Contact
Top 100 Tab Sites