Give Kudos?
Are you sure you want to give kudos to WildCard76?

Add To Songbook?
Are you sure you want to add this song to your songbook?


2,619 bands | 34,323 songs
Search: Register FREE! | Login
Browse Songs:
Browse Bands:
Tool Panel
Discuss This Song

1 2 3 4 5





Dierks Bentley - Wish It Would Break (Tab)
Album: Greatest Hits, Every Mile a Memory (2008)
Submitter: WildCard76 (267) on 1/28/04
Month Views: 47 | Total Views: 8,809
Moderator: Ray Terry | Report This Song?
Song Tools

Comment

Songbook

Kudos

Show Chords

Print

WISH IT WOULD BREAK
Dierks Bentley



(Note: there are two guitars that play during the intro. This
is the main sound that you hear, coming from the acoustic guitar.)


E-------3---------3---------3-------
B---0h1---1---0h1---1---0h1---------
G-----------------------------------
D-----------------------------------        (play this twice)
A-----------------------------------
E-----------------------------------     


....then, go into the main (lead) riff....

   (C)                    (G)

E--x---------------------------------------------
B--3---------------------------------------------
G--0--0--0--0--0h2-0---------0-0-0---0h2p0-------
D--x------------------2p0-----------2-------2p0--
A--3---------------------------------------------
E--------------------------3---------------------

   (C)                   (G)

E--x---------------------------------------------
B--3---------------------------------------------
G--0--0--0--0--0h2-0-------------0---------------
D--x------------------2p0------0-----------------
A--3-------------------------2-------------------
E--------------------------3---------------------


Chords:

G      =   320033
C      =   x32033   (also referred to as Cadd9)
D      =   xx0232
D/F#   =   2xx232
Em7    =   022030


That old (G) picture frame keeps hangin round
Cause, I ain't (C) ready yet to take it down
Every (G) now and then I'll slam the door
(C) Shake it loose and she'll hit the floor
But (Em7) I can't throw a (D/F#) good thing a(C)way
I wish it would (G) break   (C)

And I swear my (G) trucks got a haunted radio
Cause (C) I hear you in every song
But I (G) know what the silence makes me do
So I keep givin' those buttons more abuse
I (Em7) wonder how much (D/F#) punchin' it can (C) take
I wish it would (G) break

	Then I could (C) move on, right on (G) down the line (D)
	Where I don't (C) see you, need you, (G) in my life (D)
	But you're (Em7) wrapped around me
	Your (D/F#) memorie's bound me like a (C) chain
	I wish it would (G) break

Now this old (G) heart of mine's got a mind of it's own
It's dec(C)ided not to let you go
And even (G) though your love's no longer here
(C) It won't let me shed one tear
Cause (Em7) it's still holdin' (D/F#) on till yester(C)day
I wish it would (G) break

	Then I could (C) move on, right on (G) down the line (D)
	Where I don't (C) see you, need you, (G) in my life (D)
	But you're (Em7) wrapped around me
	Your (D/F#) memorie's bound me like a (C) chain
	I wish it would (G) break (C)
	I wish it would (G) break (C)
	Yeah, I wish it would (G) break (C)
	Go on and break 
 Comments (click here to add a non-facebook comment)
Home | FAQs | Privacy | Terms | Advertise | Contact
Top 100 Tab Sites