Give Kudos?
Are you sure you want to give kudos to jca4jc?

Add To Songbook?
Are you sure you want to add this song to your songbook?


2,722 bands | 35,151 songs
Search: Register FREE! | Login
Browse Songs:
Browse Bands:
Tool Panel
Discuss This Song

1 2 3 4 5



Dixie Chicks - Let Him Fly (Intro)
Submitter: jca4jc (0) on 3/20/02 1 comment
Month Views: 9 | Total Views: 9,315
Sound Byte: Listen
Moderator: p8nter21 | Report This Song?
Song Tools

Comment

Songbook

Kudos

Show Chords

Print

Ok this isn't perfect, but it's close. This is the intro and 
it repeats as Natlie sings.  Let me know if you have any questions
Korry.

E|-----------------------------------------------------------|
B|-----------------3-----------------------------------------|
G|-----------------------------------------------------------|
D|--------0---2-h4----------0---2/4-2-0-2-0-----0-h2-0-0-----|
A|---0-h2---2----------0-h2---2-----------------------2------|
E|-------------------------------------------------------3---|

E|---3-----3-----------------------------3-----3-------------|
B|---3-----3-----------3-h5-3-0----------3-----3-------------|
G|---0-----0--------------------2--------0-----0-------------|
D|---0-----0-----------------------------0-----0-------------|
A|-----------------------------------------------------------|
E|-3----3-3------------------------3--3-3---3-3--------------|
 Comments (click here to add a non-facebook comment)
absolutely amazing. i've been trying to get that for months.
thanks! it sounds great!
-nobodyhasthis | 2/7/2006
Home | FAQs | Privacy | Terms | Advertise | Contact
Top 100 Tab Sites