Give Kudos?
Are you sure you want to give kudos to Koichi Kondo?

Add To Songbook?
Are you sure you want to add this song to your songbook?


2,768 bands | 35,503 songs
Search: Register FREE! | Login
Browse Songs:
Browse Bands:
Tool Panel
Discuss This Song

1 2 3 4 5



Dolly Parton - Together You And I (Chord)
Album: Better Day (2011)
Submitter: Koichi Kondo (201) on 9/1/13
Month Views: 27 | Total Views: 7,943
Moderator: GeetarGirl96 | Report This Song?
Song Tools

Comment

Songbook

Kudos

Show Chords

Print

Together You And I
Written & Recorded by Dolly Parton
Album: Better Day

(Capo on 3)

(Intro.)
|(D)(Dadd9) (D)(D)| (Dadd9) (D)(Dsus4)(D) |(D)(Dadd9) (D)(D)| (Dadd9) (D)(Dadd9)(D) | x 2

(Guitar)
E |5---3-----5---5-|--3-----5-6-5---|5---3-----5---5-|--3-----5-3-5---| x 2
B |6---6-----6---6-|--6-----6-6-6---|6---6-----6---6-|--6-----6-6-6---|
G |5---5-----5---5-|--5-----5-5-5---|5---5-----5---5-|--5-----5-5-5---|
D |----------------|----------------|----------------|----------------|
A |----------------|----------------|----------------|----------------|
E |----------------|----------------|----------------|----------------|

(Bass from 5th bar)
G |---------------3|----3---3-5-3---|2---------------|----------------|
D |-------3--------|------3-------3-|----------------|----------------|
A |1---------------|----------------|--------------2-|2---------------|
E |----------------|----------------|----------------|----------------|

(Verse 1)
My love for you is (G)deeper than the depth of any (D)ocean
And as (G)faithful as the stars that grace the (D)night
As constant as the (G)sun making its journey through the (D)heavens
And we'll (Em)always be to-(G)gether, you and (A)I

(Chorus)
Together you and (G)I can stop the rain and make the (D)sun shine
Paint a pretty (G)rainbow, brushed with love across the (D)sky
Together you and (Em)I be-(D/F#)long, like a (G)songbird and a song
And we'll (Em)always be to-(G)gether, you and I

Solo(Guitar):  |(D)(Dadd9) (D)(D)| (Dadd9) (D)(Dsus4)(D) |(D)(Dadd9) (D)(D)| (Dadd9)
Solo(Bass)  :  |(G) |(G) |(D/F#) |(D/F#)

(Verse 2)
Life with you is (G)sweeter than the fragrance of the (D)flowers
And as (G)happy as the laughter of a (D)child
As peaceful as a (G)river as lasting as for-(D)ever
You know we'll (Em)always be to-(G)gether, you and (A)I

Repeat Chorus

I (Em)always be beside or close be-(D/F#)hind you.
Wherever you (G)go, you'll always know I'll always (A)find you

Repeat Chorus

(Tag)
We'll (Em)always be to-(G)gether, --- you (D/G) and I (D/F#)
For-(G)ever together, together, forever you and (D)I (Together you and I)
For-(G)ever together, together you and I will always (D) be (Together, together)
To-(G)gether, you and (D) I -----
 
 Comments (click here to add a non-facebook comment)
Home | FAQs | Privacy | Terms | Advertise | Contact
Top 100 Tab Sites