Give Kudos?
Are you sure you want to give kudos to hobo?

Add To Songbook?
Are you sure you want to add this song to your songbook?


2,732 bands | 35,202 songs
Search: Register FREE! | Login
Browse Songs:
Browse Bands:
Tool Panel
Discuss This Song

1 2 3 4 5



Don Williams - Tulsa (Intro)
Album: Gold (2000)
Submitter: hobo (0) on 6/6/03 1 comment
Month Views: 2 | Total Views: 3,755
Moderator: Ray Terry | Report This Song?
Song Tools

Comment

Songbook

Kudos

Show Chords

Print

E--------------------------------------------
B--------------------------------------------
G--------------------------------------------
D--------------------------------------------
A--9-9-8-7---7-7-6-5---B-2-------------------
E--7-7-6-5---5-5-4-3-0-3-0-------------------
 Comments (click here to add a non-facebook comment)
A-------7-7-6-5------------------
E-----------------9-9-8-7-0-3-0
-lightningboy | 7/10/2003
Home | FAQs | Privacy | Terms | Advertise | Contact
Top 100 Tab Sites