Give Kudos?
Are you sure you want to give kudos to lmofle?

Add To Songbook?
Are you sure you want to add this song to your songbook?


2,700 bands | 34,999 songs
Search: Register FREE! | Login
Browse Songs:
Browse Bands:
Tool Panel
Discuss This Song

1 2 3 4 5



Doug Supernaw - Red And Rio Grande (Intro)
Submitter: lmofle (636) on 1/8/03
Month Views: 15 | Total Views: 3,265
Sound Byte: Listen
Moderator: phatboy28 | Report This Song?
Song Tools

Comment

Songbook

Kudos

Show Chords

Print

I didnít have the music to play along for this
so I did it by memory but am pretty sure it is
correct. Notes right next to each other mean
they are picked quickly.

Intro

E--------------------------------|
B---7-8-10-1010-1010-8-7-5-5-7-3-|
G-9------------------------------|
D--------------------------------|
A--------------------------------|
E--------------------------------|


E--------------------------------|
B-5-7-8-88-88-7-5-3--------------|
G-------------------2------------|
D--------------------------------|
A--------------------------------|
E--------------------------------|
 Comments (click here to add a non-facebook comment)
Home | FAQs | Privacy | Terms | Advertise | Contact
Top 100 Tab Sites