Give Kudos?
Are you sure you want to give kudos to axehappy?

Add To Songbook?
Are you sure you want to add this song to your songbook?


2,668 bands | 34,775 songs
Search: Register FREE! | Login
Browse Songs:
Browse Bands:
Tool Panel
Discuss This Song

1 2 3 4 5





Doug Supernaw - Reno (Solo)
Submitter: axehappy (83) on 12/10/04 1 comment
Month Views: 10 | Total Views: 3,353
Sound Byte: Listen
Moderator: phatboy28 | Report This Song?
Song Tools

Comment

Songbook

Kudos

Show Chords

Print

Doug Supernaw  -  Reno  (solo)

By axehappy  -  axehappy at countrytabs.com


********************************************************************


E-------------------------------------13----------------8--------
B--------------------6-8b-6-----6-6/13--13-15--13--------10-8----
G--------5h7-5--5-5/7-7--7---5/7-------------14--12-14\----9-7-9-
D--3-5/7---------------------------------------------------------
A----------------------------------------------------------------
E----------------------------------------------------------------


E-----6-6------10-10------13-13-13----|
B-----6-6------11-11------15-15-13----|
G--5/7-----8/10------13/15------12b---|
D-------------------------------------|
A-------------------------------------|
E-------------------------------------|
 Comments (click here to add a non-facebook comment)
Excellent!!!!! A perfect 10.
Thank you, thank you, thank you.

-WildCard76 | 12/10/2004
Home | FAQs | Privacy | Terms | Advertise | Contact
Top 100 Tab Sites