Give Kudos?
Are you sure you want to give kudos to rvacher?

Add To Songbook?
Are you sure you want to add this song to your songbook?


2,728 bands | 35,169 songs
Search: Register FREE! | Login
Browse Songs:
Browse Bands:
Tool Panel
Discuss This Song

1 2 3 4 5



Due West - Bible And The Belt Intro And Tab (Tab)
Submitter: rvacher (2) on 2/3/11
Month Views: 18 | Total Views: 4,696
Moderator: Ridgeball6421 | Report This Song?
Song Tools

Comment

Songbook

Kudos

Show Chords

Print

The chords of this song are just C-F-G 
The timing and actual amount of start/stop
for the background are up to you to 
get the feel for, these are just the 
notes for those who are beginners here to 
learn from. 

E---------------------------------|
B---------------------------------|
G-----3---------------------------|
Dó3h5---3>1-----------------------| INTRO
A-----------h3--------------------| #1
E---------------------------------|

E---------------------------------|
B---------------------------------| #2
G---3-5---3-5---------------------|
D------3h5----1b------------------| X 4
A---------------3-----------------|
E---------------------------------|

Well I grew up back in the sticks
E---------------------------------|
B---------------------------------|
G----5-3-5---------5-3-5----------|
D----5-3-5---------5-3-5----------|
A---------------------------------|
E---------------------------------|

I was raised on cornbread and scr i pture
E---------------------------------|
B----6-4-6--------------6-4-6-----|
G----5-3-5--------------5-3-5-----|
D---------------------------------|
A---------------------------------|
E---------------------------------|


And praised God for teachin' me wrong from right
E---------------------------------|
B---8-6-8---------------8-6-8-----|
G---7-5-7---------------7-5-7-----|
D---------------------------------|
A---------------------------------|
E---------------------------------|


E----------------------------|
B----------------------------|
G-------5-3-5-------3-3-3>5--|
D-------5-3-5----1b-3-3-3>5--|
A-------------------1-1-1>3--|
E----------------------------|




I had a wild streak
Three counties wide
The Devil had me
Dead in his sights
It was the hand of God
That got me out of the hands of the law

Mama brought the bible
Daddy brung the belt
Momma set the table
Daddy rung the bell
The preacher did his best to show me the light
But daddy was the one that kept me walkin' the line
Momma sang the gospel
Daddy drove it home
Momma was an angel
Daddy was the brimstone
One foot in heaven
And one foot in hell
I found religion between the bible and the belt

INTRO #1 #2

I guess it rings true
But the good book says
What you learn young
You never forget
Daddy's belt left quite an impression on me
Mmmmm
I can still hear
Momma's voice in the choir
She set the whole dang church on fire
And it still burns in the deepest part of me

Mama brought the bible
Daddy brung the belt
Momma set the table
Daddy rung the bell
The preacher did his best to show me the light
But daddy was the one that kept me walkin' the line
Momma sang the gospel
Daddy drove it home
Momma was an angel
Daddy was the brimstone
One foot in heaven
And one foot in hell
I found religion between the bible and the belt
D  F Ab Bb

Momma sang the gospel
Daddy drove it home
Momma was an angel
Daddy was the brimstone
One foot in heaven
One foot in hell
I found religion between the bible and the belt

I said
One foot in heaven
One foot in hell
I found religion between the bible and the belt
E---------------------------------|
B---------------------------------|
G-----3---------------------------|
Dó3h5---3>1-----------------------| OUTRO 
A-----------h3--------------------|
E---------------------------------|

E---------------------------------|
B---------------------------------|
G---3-5---3-5---------------------| X2 
D------3h5----1b------------------|
A---------------3-----------------|
E---------------------------------|

E---------------------------------|
B---------------------------------|
G---3-5---3-5--3-5-5--3-5---------| last time 
D------3h5-----3-5-5--3-5---------|
A--------------1-3-3--1-3---------|
E---------------------------------|
 Comments (click here to add a non-facebook comment)
Home | FAQs | Privacy | Terms | Advertise | Contact
Top 100 Tab Sites