Give Kudos?
Are you sure you want to give kudos to axehappy?

Add To Songbook?
Are you sure you want to add this song to your songbook?


2,682 bands | 34,894 songs
Search: Register FREE! | Login
Browse Songs:
Browse Bands:
Tool Panel
Discuss This Song

1 2 3 4 5





Dwight Yoakam - 20 Years (Lead)
Submitter: axehappy (101) on 12/16/01
Month Views: 14 | Total Views: 4,856
Moderator: blugraspickr | Report This Song?
Song Tools

Comment

Songbook

Kudos

Show Chords

Print

Dwight Yoakam - 20 Years (Lead guitar breaks)
By Axehappy - axehappyuk at yahoo.co.uk
Email me with any requests or comments on this or for any other Dwight
Yoakam lead guitar parts, and I'll see if I can tab them for ya! 
Note: I have worked hard to learn this piece for you guys, so please
don't steal it to post around other places without my permission ;)

b = bend
bh = bend and hold
r = release
p = pull off
h = hammer on
\ = slide down
/ = slide up
br = pre-bend and release
x = dead note
***********************************************************************

Intro

E-xx-8--5-5--------------10-10-10--5-------------
B-xx-8b-6-6b---------8bh--8----8r--6b------------
G------------7-5-7\------------------7-7-7p5-5/7-
D-------------7-----------------------7------5/7-
A------------------------------------------------
D------------------------------------------------


Lead Break

E-----------------------9--------------------------------------
B-------------------------13-12-10----10-10--------------------
G-----7-9-10-7-9-7-9/11------------12----10b-------------------
D--------------------------------------------12\-----12--12-12-
A-7/9-------------------------------------------10/14--14------
D--------------------------------------------------------------

E-14-14---12-10p8-10-------8----5--------
B----13br-13-10p8-10-10-----8brb-6b------
G--------------------10b-7---------7-5-5-
D-----------------------------------7----
A----------------------------------------
D----------------------------------------

E---------------------------------------------------------------------
B----------------7--7h8p7--7------------------------------------------
G-------7--7h9h10-10-----10-10p9p7-7-----9-7-7\-0---------------------
D-7h9h10-10-------------------------9-7h9-9------3p2p0-0--------------
A-----------------------------------------------------3-3-2h3p2p0-----
D----------------------------------------------------------------3b-0-
 Comments (click here to add a non-facebook comment)
Home | FAQs | Privacy | Terms | Advertise | Contact
Top 100 Tab Sites