Give Kudos?
Are you sure you want to give kudos to mkrousie?

Add To Songbook?
Are you sure you want to add this song to your songbook?


2,870 bands | 36,242 songs
Search: Register FREE! | Login
Browse Songs:
Browse Bands:
Tool Panel
Discuss This Song

1 2 3 4 5



Dwight Yoakam - Blame The Vain (Lead)
Submitter: mkrousie (3) on 8/3/12
Month Views: 30 | Total Views: 6,256
Moderator: blugraspickr | Report This Song?
Song Tools

Comment

Songbook

Kudos

Show Chords

Print

Dwight Yoakam: Blame The Vain

Intro:
   G               Am                                          G  Repeat 2x's
E[----------------------------------------------------------------3-------------]
B[---------------------------3-5-3------------------------------3---------------]
G[---------------------5-5--------5b---------------------------0----------------]
D[---------------------------------------------------------------0--------------]
A[------2-2-3-3-0-----------------------0-0--3-3--2-2---------------------------]
E[--3-3-----------------------------------------------------3-------------------]

Guitar Solo:
                       G                                                       Am
E[---------------------------10--------------10--------------10------------10-----------]
B[---------------------8-8/12--12-10--8-10/12--12-10--8-10/12--12-10-8-10/12-12-8h10p8--]
G[------------------7h9---------------------------------------------------------------9-]
D[-----5h7/9-9-7-5----------------------------------------------------------------------]
A[--5h7---------------------------------------------------------------------------------]
E[--------------------------------------------------------------------------------------]
     Am            C              G              D               
E[-----------------------------------------------------------------------------]
B[-8h10p8----------------------------------------------------------------------]
G[-------9---9-9-7h9-7/5--5/7v-5/7v----4h5-5h7p5-------------------------------]
D[------------------------------------5---------7/-----------------------------]
A[-----------------------------------------------------------------------------]
E[-----------------------------------------------------------------------------]
 Comments (click here to add a non-facebook comment)
Home | FAQs | Privacy | Terms | Advertise | Contact
Top 100 Tab Sites