Give Kudos?
Are you sure you want to give kudos to matellmon?

Add To Songbook?
Are you sure you want to add this song to your songbook?


2,712 bands | 35,098 songs
Search: Register FREE! | Login
Browse Songs:
Browse Bands:
Tool Panel
Discuss This Song

1 2 3 4 5



Dwight Yoakam - Claudette (Tab)
Album: Under The Covers (1997)
Submitter: matellmon (76) on 2/11/02
Month Views: 14 | Total Views: 6,720
Moderator: blugraspickr | Report This Song?
Song Tools

Comment

Songbook

Kudos

Show Chords

Print

E    A
0----0---                                       ---------
0----1---  OPENING...ACUSTIC    E-E-A-E-A-E 2X  ---------
1----2---                                       ---------   
2----2---                                       ---------
2----0---                                       ---------
0--------                                       0/-LONG SLIDE
E RIFF                    A RIFF
-------------------------------------------
-------------------------------------------
----------------------------------5-2-4-2--
--------5-2-4-2-----------0-0-3-4----------
0-0-3-4------------------------------------
-------------------------------------------
OTHER CHORDS USED DURING SONG:
B(b shuffle during chorus)     A(also a shuffle)
----------------------------------------
----------------------------------------
-------------------------------2--------
4------------------------------2--------
2------------------------------0--------
----------------------------------------
E RIFF--->
IVE GOT A BRAND NEW BABY AND I FEEL SO GOOD

SHE LOVES ME EVEN BETTER THAN I THOUGHT SHE COULD
A RIFF--->
IM ON MY WAY TO HER HOUSE 

AND IM PLUM OUT OF BREATH
B CHORD(STRUM TO RHYTM)
WHEN I SEE HER TONITE 

IM GONNA SQUEEKE HER TO DEATH
       E RIFF  
chorus:CLAUDETTE, PRETTY LITTLE THING CLAUDETTE
A RIFF
NEVER MAKES ME FRET CLAUDETTE
B SHUFFLE
WELL SHES THE GREATES GIRL 
A SHUFFLE
THAT I EVER MET
B SHUFFLE
I GET THE BEST LOVIN 
A SHUFFLE
THAT ILL EVER GET FROM 
E RIFF
CLAUDETTE, PRETTY LITTLE PET 

CLAUDETTE
A RIFF
OH OH CLAUDETTE
-here is what is played at the end of the chorus
--------------------------------------
1--1--1-1--1-1--1-1--1----------------
2--2--0h2--0h2--2-2--0h2--------------
2--2--0h2--0h2--2-2--0h2--------------
0--0------------0-0-------------------
--------------------------------------
back to verse chorus pattern...

here is the solo...
--3--3/--0--3/-------------
2----2/--0--2/--2/\/\/p0---
---------------------------  this is repeated one more
---------------------------   time...
---------------------------
---------------------------
reverse rake
------------------------------------------------
-----x------------------------------------------
------x---------------------------2------2------
-------x----------------------------------------
--------x------0-0----0-0-----0-0---0--0---0----
---------x--4/-----4/------4/-------------------
here is the insane revese climb...play fast or it wont sound right...
although several pulls have been notated...most of this is done with 
hammers and pulls....
----------------------------------------------------------
----------------------------------------------------------
-------0---2p0---0----------------------------------------
0-2-4----4-----4---4-2-0---0---2p0---0--------------------
-------------------------4---4-----4---4-2---0---2p0----0-
-------------------------------------------4---4-----3/---
the solo ends with these harmonics and slight movement with 
vibrato....those with telecasters may vibrate behind the nut...
-----5~~~~~-------------
------------------------
--5---------------------
------------------------
------------------------
-----------------------
back to verse and chorus.....
 Comments (click here to add a non-facebook comment)
Home | FAQs | Privacy | Terms | Advertise | Contact
Top 100 Tab Sites