Give Kudos?
Are you sure you want to give kudos to axehappy?

Add To Songbook?
Are you sure you want to add this song to your songbook?


2,722 bands | 35,144 songs
Search: Register FREE! | Login
Browse Songs:
Browse Bands:
Tool Panel
Discuss This Song

1 2 3 4 5



Dwight Yoakam - Who At The Door Is Standing (Tab)
Album: South of Heaven, West of Hell (2001)
Submitter: axehappy (16) on 7/19/02
Month Views: 2 | Total Views: 4,945
Moderator: blugraspickr | Report This Song?
Song Tools

Comment

Songbook

Kudos

Show Chords

Print

Dwight Yoakam  -  Who At The Door Is Standing (tab)

By axehappy  -  axehappy at countrytabs.com


F     =   133211                                 Bb     =   x13331

C7    =   x32310                                 F7     =   131241


****************************************************************************************



F  Bb  F  C7  F
INTRO



F                  Bb        F                 C7
Who at the door is standing, patiently drawing near.
F                  Bb         F            C7           F
"Entrance within demanding?", whose is the voice that I hear?
                           Bb      F                 C7
All through the dark hours dreary, knocking again is he,
F                   Bb     F          C7       F   F7
Jesus, art thou not weary, waiting so long for me?



Bb                    F                           C7
Sweetly the tones are falling, "Open the door for me."
F                    Bb       F       C7        F
If thou will heed my calling, I will abide with thee.



F  Bb  F  C7  F  Bb  F  C7  F  F7
FIRST GUITAR SOLO



Bb                    F                           C7
Sweetly the tones are falling, "Open the door for me."
F                    Bb       F       C7        F
If thou will heed my calling, I will abide with thee.



F                   Bb      F                 C7
Door of my heart, I hasten, there I will open wide.
F                    Bb       F             C7  F    F7
Though he rebuke and chasten, he shall with me abide.



Bb                    F                           C7
Sweetly the tones are falling, "Open the door for me."
F                    Bb       F       C7        F
If thou will heed my calling, I will abide with thee.



F  Bb  F  C7  F  Bb  F  C7  F  F7
SECOND GUITAR SOLO



****************************************************************************************



****************************************************************************************



INTRO


   F              Bb              F      C7     F

E-----------------------------1-------------------------------------|
B--4/6-6-6-6\4--------------1-1-1-4/6-4-----------4/6-4-------------|
G-------------5-5\3-1-3-1h2-2---2------5-3/5-1h2-------5-5\3p1------|
D--------------------------3--------------------3-------------3-3---|
A-------------------------------------------------------------------|
E-------------------------------------------------------------------|



FIRST GUITAR SOLO


   F                 Bb                F                    C7          F

E----1-------------------------------1-1-4b-1-----------------10b-8-----11-11-11-11-11-
B--3-1-4/6-6-6-6-4-3-4h5p4p1--------1-1------4/5-4/5-4/5-4/5-------9/13-13-13-13-13-13-
G--3--------------5-5-------3-1h2---------------------------5--------------------------
D--------------------------------3-3---------------------------------------------------
A--------------------------------------------------------------------------------------
E--------------------------------------------------------------------------------------

           Bb           F       C7      F    F7

E--8-8-8-8-5-5-5-5--1-1-4b-1-------1----------1------|
B--9-9-9-9-6-6-6-6-3--------3-1-1/3-1------1-1-3-1---|
G------------------------------------1h2--2-3--------|
D---------------------------------------3------------|
A----------------------------------------------------|
E----------------------------------------------------|



SECOND GUITAR SOLO

 
   F                        Bb              F              C7                F   

E-------------------------------1-1-3/5-1-1-3/5-1-3/5-1-1----------------------------1-
B-----4-6---4-6--------------1h3---------3-------------3--1---4-4---4-4-------------1--
G--3/5---3/5---5-5\3-1-3-1h2-----------------------------3-3/5-5-3/5---5\3-1-3-1h2-2---
D---------------------------3-----------------------------------------------------3----
A--------------------------------------------------------------------------------------
E--------------------------------------------------------------------------------------

        Bb          F      C7   F F7

E-----1-4b-1---1-1----------------1---|
B--3/4------4-1-4-1-4/6-4---------4---|
G------------------------5-3-1-2--2---|
D-------------------------------3-1---|
A---------------------------------3---|
E---------------------------------1---|



 Comments (click here to add a non-facebook comment)
Home | FAQs | Privacy | Terms | Advertise | Contact
Top 100 Tab Sites