Give Kudos?
Are you sure you want to give kudos to WildCard76?

Add To Songbook?
Are you sure you want to add this song to your songbook?


2,636 bands | 34,517 songs
Search: Register FREE! | Login
Browse Songs:
Browse Bands:
Tool Panel
Discuss This Song

1 2 3 4 5





Earl Thomas Conley - That Was A Close One (Tab)
Album: The Essential Earl Thomas Conley (1996)
Submitter: WildCard76 (276) on 11/28/02
Month Views: 21 | Total Views: 3,717
Moderator: Ray Terry | Report This Song?
Song Tools

Comment

Songbook

Kudos

Show Chords

Print

THAT WAS A CLOSE ONE
Earl Thomas Conley
Writer : Byrne



G          xx5433
Gadd9      xx5435
C          x3203x
D          xx0232
D7sus      xx0213


INTRO:
E--------5----5---3-----------5----5----3------
B-------3-3----3----3--------3-3----3----3-----
G------4---4----4-----4-----4---4----4----4----
D-----5--------------------5-------------------
A----------------------------------------------
E----------------------------------------------


I (Gadd9) loved her because she was (G) there
And I (Gadd9) knew all along that (G) it wasn't fair
But, (C) I didn't care
And I got the hell out of there
That was a (G) close one
I (Gadd9) kept my freedom in(G)tact
Got (Gadd9) rid of the hassle and (G) rid of the flack
Yeah, I (C) cut me some slack
And, I never thought I'd want it back
That was a (G) close one

That was a (C) close one
And if I hadn't have run
She might've got away with my (G) heart
(So, I played it smart/My precious heart)
That was a (C) close one
I kept my cool and never let down my (G) gaurd
That was a (D) close one (D7sus)


E--------5----5---3-----------5----5----3------
B-------3-3----3----3--------3-3----3----3-----
G------4---4----4-----4-----4---4----4----4----
D-----5--------------------5-------------------
A----------------------------------------------
E----------------------------------------------


(Gadd9) Winter of seventy (G) nine
(Gadd9) So cold and lonely I (G) found a good woman
She (C) took me inside
And I swear to God, I really tried
That was a (G) close one
Will there (Gadd9) ever be a love of my (G) life
When I'm (Gadd9)out of my prime and out of mind
In the nick of time
And will it (C) feel any nearer as fine
As the (G) close one

That was a (C) close one
And if I hadn't have run
She might've got away with my (G) heart
(So, I played it smart/My precious heart)
That was a (C) close one
I kept my cool and never let down my (G) gaurd
That was a (D) close one (D7sus)

That was a (C) close one
I loved her because she was there
That was a (Gadd9) close one
That was a (C) close one
Winter of seventy nine
That was a (Gadd9) close one
That was a (C) close one

E--------5----5---3-----------5----5----3-----------------------------------
B-------3-3----3----3--------3-3----3----3---------3---3-------3---3--------
G------4---4----4-----4-----4---4----4----4-------0-0-0-0-----0-0-0-0-------
D-----5--------------------5---------------------2---2-------2---0---2------
A-----------------------------------------------3-----------3---------------
E---------------------------------------------------------------------------

E--------5----5---3-----------5----5----3-----------------------------------
B-------3-3----3----3--------3-3----3----3---------3---3-------3---3--------
G------4---4----4-----4-----4---4----4----4-------0-0-0-0-----0-0-0-0-------
D-----5--------------------5---------------------2---2-------2---0---2------
A-----------------------------------------------3-----------3---------------
E---------------------------------------------------------------------------

(Fade Out)
 Comments (click here to add a non-facebook comment)
Home | FAQs | Privacy | Terms | Advertise | Contact
Top 100 Tab Sites