Give Kudos?
Are you sure you want to give kudos to matellmon?

Add To Songbook?
Are you sure you want to add this song to your songbook?


2,711 bands | 35,094 songs
Search: Register FREE! | Login
Browse Songs:
Browse Bands:
Tool Panel
Discuss This Song

1 2 3 4 5



Eddie Rabbitt - Gone Too Far (Chord)
Album: Country Classics By Eddie Rabbitt (2003)
Submitter: matellmon (72) on 2/7/02
Month Views: 18 | Total Views: 4,192
Moderator: Ray Terry | Report This Song?
Song Tools

Comment

Songbook

Kudos

Show Chords

Print

Intro solo:  G  D  C  G  D  C

|---------------------------------------------------------------------
|--------PB-------------------------------PB--------15--------PB------
|-14(15)-(15)(16)(14)-14-14(15)-12-14(15)(15)-14-12----14(15)(15)(14)-
|---------------------------------------------------------------------
|---------------------------------------------------------------------
|---------------------------------------------------------------------

|------------------------------------------------------------
|----------15--------------PB--------------------------------
|-12-14-14----14-12-14(15)(15)-14-12-14-12-------------------
|------------------------------------------------------------
|------------------------------------------------------------
|------------------------------------------------------------

G 	  	 D 	  	  	 C
I was heading home I hadn't planned on you
G 	  	     D 	  	  	  	 C
I shouldn't be here now but tell me what can I do
 	  	  	  	 
The way you're looking in my eyes
G 	    D         Em 	       D 	    C
Well I'm beginning to realize it's true, it's you, and baby we've...


Chorus:
G    C 	  	  	  	  G
Gone too far,|------------------ I'm gonna wake 
|-12h15p12---------------
 	      |-12(13)-----------    C 	          |----------15-12h13p12---
 	      |--------14(15)---- up in your arms |----------------------12
 	      |---------------12- 	  	  |------------------------
 	      |------------------ 	  	  |------------------------
 	      |------------------ 	  	  |------------------------
G    C 	  	  	  	 G
Gone too far,|------------------ But I can't
help|------------------------
 	      |-12(13)-----------     C   	  |----------------12-13-15
 	      |--------14(15)-12- I'm falling     |-------11-12-14---------
 	      |------------------ 	          |-12-14------------------
 	      |------------------ 	  	  |------------------------
 	      |------------------ 	  	  |------------------------
G 	  	    D 
The way you look at me  	 |-12-------------------------------
 	  	   C 	 |----15----------------------------
The way I look at you: 	 |-------13-------------------------
 	  	  	 |----------14(15)(14)-14(15)(14)---
 	  	  	 |--------------------------------12
 	  	  	 |----------------------------------
G 	  	  	 D
The way you're touching
me|-12h15p12---------------------------------------
 	  	      C 	  |----------15-12h13p12---------------------------
The way I'm touching
you:|----------------------14-12h14p12---------------
 	  	  	  |----------------------------------14-12h14p12---
 	  	  	  |----------------------------------------------14
 	  	  	  |------------------------------------------------
BRIDGE:
C
You're pulling all the right strings baby          
|------------------------
G 	 D 	  	 Em 	    D 	    C 	     |------------------------
You're saying all the right things baby to me, to
me|-12-12-12-12-12-12-12-12
 	  	  	  	  	  	     |-14-12-14-14-14-14-12-14
and don't you know we've..... 	  	  	     |------------------------
 	  	  	  	  	  	     |------------------------
chorus
solo:  G  D  C  G  D  C

|-17(19)(17)-15-17--------------------------18----12h15p12-------------
|------------------15----15-----------15-17----17----------15-12h13p12-
|---------------------17----16\-13/16----------------------------------
|----------------------------------------------------------------------
|----------------------------------------------------------------------
|----------------------------------------------------------------------

|-------------------------------------------------------------------------
|-----------------------------------------------------------PB------------
|-14-12h14p12-------------------------------------12-14(15)(15)(16)(14)p12-
|-------------14-12h14p12-------------------12-14-------------------------
|-------------------------14-12-12h14-12h14-------------------------------
|-------------------------------------------------------------------------

|----------------15--------------------------------------
|-------------------15(16)(15)-13p12-14(15)(14)-12-14----
|-14----12-14-----------------------------------------14-
|----14-------14-----------------------------------------
|--------------------------------------------------------
|--------------------------------------------------------

bridge


G    C 	  	  	  	  G
Gone too far,|------------------ I'm gonna wake 
|-12h15p12---------------
 	      |-12(13)-----------    C 	          |----------15-12h13p12---
 	      |--------14(15)---- up in your arms |----------------------12
 	      |---------------12- 	  	  |------------------------
 	      |------------------ 	  	  |------------------------
 	      |------------------ 	  	  |------------------------
G    C 	  	  	  	      G
Gone too far,|---------------------- But I
can't|-15---------------------
 	      |----------------------     C      |----15(16)(15)----------
 	      |-14(15)-14(15)(14)-12- I'm falling|--------------12-14(15)-
 	      |---------------------- 	         |------------------------
 	      |---------------------- 	  	 |------------------------
 	      |---------------------- 	  	 |------------------------
G    C 	  	  	  	      G
Gone too far |---------------------- Feels too good
|----------------------
 	      |----------------------     C  	     |--------------12-13-15
 	      |-14(15)-14(15)(14)-12-  to turn back  |------11-12-14--------
 	      |---------------------- 	  	     |-12-14----------------
 	      |----------------------      now 	     |----------------------
             |---------------------- 	  	     |----------------------
G    C
Gone too far 	 |-12h15p12----------------
 	  	 |----------15-12h13p12----
 	  	 |----------------------14-
 	  	 |-------------------------
 	  	 |-------------------------
 	  	 |-------------------------
G 	  	  	 C
But I can't help it I'm fall---alling
    G 	        C 	  	  G 	    C 	    G
|-18(19)-17-15-12----12----------------------15-12----12-------------
|-----------------15-------------------15-15-15----15----------------
|-----------------------14-12-12-14/16-------------------14-12-------
|--------------------------------------------------------------14-12-
|--------------------------------------------------------------------
|--------------------------------------------------------------------
  C 	  	 G 	  	 C        G
|-----------------------------------------------------------------
|----------------------------------------------12-12--------12-12-
|-14(15)-14(15)-12-------------------12-14(15)-------14(15)-------
|------------------14-12-12-14-12-14------------------------------
|-----------------------------------------------------------------
|-----------------------------------------------------------------
 	  	      C 	  	  	  	  G
|--------------12-------------------------------15-15-20-18-15-------
|--------12-12-12-15-------------------15-15/17----------------17-15-
|-14(15)-------------14-12-------14/16-------------------------------
|--------------------------14-12-------------------------------------
|--------------------------------------------------------------------
|--------------------------------------------------------------------
 	 C 	  	 G     C 	  	 G    C
|------------------------------------------------------------
|-17----------------15-17-------13-12------------------------
|----16\14-12-14/16-------16\12-------14-12------------------
|-------------------------------------------14-12------------
|-------------------------------------------------14....fade-
|----------------------------- 
 Comments (click here to add a non-facebook comment)
Home | FAQs | Privacy | Terms | Advertise | Contact
Top 100 Tab Sites