Give Kudos?
Are you sure you want to give kudos to Koichi Kondo?

Add To Songbook?
Are you sure you want to add this song to your songbook?


2,761 bands | 35,453 songs
Search: Register FREE! | Login
Browse Songs:
Browse Bands:
Tool Panel
Discuss This Song

1 2 3 4 5



Eric Church - Broke Record (Chord)
Album: The Outsiders (2014)
Submitter: Koichi Kondo (97) on 12/31/14
Month Views: 10 | Total Views: 9,001
Moderator: Ray Terry | Report This Song?
Song Tools

Comment

Songbook

Kudos

Show Chords

Print

Broke Record
Written by Eric Church & Jeff Hyde
Recorded by Eric Church

(No Capo)

Intro.:
             (D7)                      (D7)  (G7)
E: ---------||-------------------------|----------------------------|
B: ---------||-------------------------|----------------------------|
G: ---------||-------------------------|------0----0-1-0---0--------|
D: -----0---||0--0--0----0-0-0-----0---|0--0-------------3----3/4-0-|
A: -0-3---0-||-----------------0-3---0-|----------------------------|
E: ---------||-------------------------|----------------------------|

   (D7)                        (A7)                    (D7)
E: |---------------------------|---------------------||----------------------|
B: |---------------------------|---------------------||----------------------|
G: |---------------------------|---------------------||----------------------|
D: |0--0--0---0--0-0-0-----0---|------3-0------------||3-2-0------3-2-0------|
A: |-------------------0-3---0-|3-0-------3----------||------3----------3----|
E: |---------------------------|--------------3------||----------------------|

   (D7)       (A7)      (D7)                   (D7)     (A7)
E: |----------------------|----------------------|--------------------------||
B: |----------------------|----------------------|--------------------------||
G: |----------------------|----------------------|--------------------------||
D: |3-2-0----------0------|3-2-0------3-2-0------|3-2-0---------------------||
A: |------3--3-0-3---3----|------3----------3----|------3----3/5--5--5--5---||
E: |----------------------|----------------------|--------------------------||


Solo 1:
    (D7)                  (D7)       (A7)
E: ||---------------------|-----------------------||
B: ||---------------------|-----------------------||
G: ||---------------------|-----------------------||
D: ||3-2-0-----3-2-0------|3-2-0----------0---0---||
A: ||------3---------3----|------3----0-3---------||
E: ||---------------------|-----------------------||


Solo 2:
    (A7)           (G7)       (A7)            (D7)
E: ||--1--1--------------------|------------------------------||
B: ||-------3-1---1--3---------|----1-------------------------||
G: ||-----------2------1-0---0-|--2---2-0---0-----------------||
D: ||----------------------3---|----------3---3-0-------0-----||
A: ||--------------------------|------------------3-0-3-------||
E: ||--------------------------|------------------------------||


Solo 3:
    (F7)                   (F7)             (G7)
E: ||----------------------|---------------------------------------||
B: ||----------------------|---------------------------------------||
G: ||----------------------|---------------------------------------||
D: ||3-2-0------3-2-0------|3-2-0-3-2-0-3-2-0-5-3-5-3-5-3-0-0-0----||
A: ||------3----------3----|---------------------------------------||
E: ||----------------------|---------------------------------------||


Outro.:
    (D7)                  (D7)         (A7)         (D7)             (D7)     (A7) 
E: ||---------------------|-----------------------|--------------------|-----------------------|
B: ||---------------------|-----------------------|--------------------|-----------------------|
G: ||---------------------|-----------------------|--------------------|-----------------------|
D: ||3-2-0-----3-2-0------|3-2-0----------0---0---|3-2-0-----3-2-0-----|3-2-0------------------|
A: ||------3---------3----|------3----0-3---------|------3---------3---|------3----3/5---------|
E: ||---------------------|-----------------------|--------------------|-----------------------|

    (D7)                 (D7)     (A7)       (D7)                   (D7)
E: ||--------------------|----------------------|--------------------|---------------------|-----------||
B: ||--------------------|----------------------|--------------------|---------------------|-----------||
G: ||--------------------|----------------------|--------------------|---------------------|-----------||
D: ||3-2-0-----3-2-0-----|3-2-0---------0---0---|3-2-0-----3-2-0-----|3-2-0----------------|-----------||
A: ||------3---------3---|------3---0-3---------|------3---------3---|------3--3/5-3/5-3/5-|-3/5-3/5---||
E: ||--------------------|----------------------|--------------------|---------------------|-----------||

 
 Comments (click here to add a non-facebook comment)
Home | FAQs | Privacy | Terms | Advertise | Contact
Top 100 Tab Sites