Give Kudos?
Are you sure you want to give kudos to lmofle?

Add To Songbook?
Are you sure you want to add this song to your songbook?


2,722 bands | 35,151 songs
Search: Register FREE! | Login
Browse Songs:
Browse Bands:
Tool Panel
Discuss This Song

1 2 3 4 5



Flatt & Scruggs - Foggy Mountain Breakdown (Intro)
Submitter: lmofle (324) on 6/8/03
Month Views: 7 | Total Views: 5,334
Help! We need a moderator for this artist. | Report This Song?
Song Tools

Comment

Songbook

Kudos

Show Chords

Print

This is the very beginning actually done on banjo


E--3-3-3-3---3---3---3----------------------------------------------|
B--0-1-2-3-2h32h32h3-2h3-2h3-2h3-----------------------2/3333-----|
G----------------------------------2p0-----4-2-0---4-2-0--------2p0-|
D--------------------------------------1/2-------2------------------|
A-------------------------------------------------------------------|
E-------------------------------------------------------------------|

E-----------------------------------------------------|
B-------------------2/3333-----33333333---------------|
G-----4-2-0---4-2-0--------2p0-----------2p0-0-4-2-0--|
D-1/2-------2-----------------------------------------|
A-----------------------------------------------------|
E-----------------------------------------------------|

 Comments (click here to add a non-facebook comment)
Home | FAQs | Privacy | Terms | Advertise | Contact
Top 100 Tab Sites