Give Kudos?
Are you sure you want to give kudos to matellmon?

Add To Songbook?
Are you sure you want to add this song to your songbook?


2,711 bands | 35,094 songs
Search: Register FREE! | Login
Browse Songs:
Browse Bands:
Tool Panel
Discuss This Song

1 2 3 4 5



Flatt & Scruggs - Foggy Mountain Breakdown (Tab)
Submitter: matellmon (72) on 3/14/02
Month Views: 9 | Total Views: 20,353
Help! We need a moderator for this artist. | Report This Song?
Song Tools

Comment

Songbook

Kudos

Show Chords

Print

   Key: G  
   
E ||-3-3-3------3---------3--------3-----3-------------0--------|
B ||-0-1-2h3-----3---2h3---3---2h3--3----3-------0--------0-----|
G ||-----0---0----0--0--0---0--0--0--2-0----------0-------------|
D ||---------------------------------------0-1---2----2--2--2---|
A ||------------------------------------------------------------|
E ||-------------------------------------------0---0---0--0-----|style='font-size:1px;color:#ffffff;'>
 

E ||-----------------|-----------------------|
B ||---0------0---3--|----0-------0-------0--|
G ||-------3----3----|--------3^-------3^----|
D ||---5----5--5---5-|----2-----2---2-----2--|
A ||-----------------|-----------------------|
E ||-3---3---3---3---|--0---0-----0----0-----|

                                                              whole bend
E ||-----------------|-----------------------|---------------------|
B ||---0------0---3--|----3------3-------3---|-------5--------3----|
G ||-------3----3----|-------5-------5-------|---3h4----3h4---2^---|
D ||---5----5--5---5-|----4----4---4------4--|---5----5-------3----|
A ||-----------------|--5---5----5-----5-----|---------------------|
E ||-3---3---3---3---|-----------------------|--3---3--3-----------|
   


 Comments (click here to add a non-facebook comment)
Home | FAQs | Privacy | Terms | Advertise | Contact
Top 100 Tab Sites