Give Kudos?
Are you sure you want to give kudos to WildCard76?

Add To Songbook?
Are you sure you want to add this song to your songbook?


2,632 bands | 34,453 songs
Search: Register FREE! | Login
Browse Songs:
Browse Bands:
Tool Panel
Discuss This Song

1 2 3 4 5





Garth Brooks - I'ts Midnight Cinderella (Tab)
Album: Fresh Horses (2000)
Submitter: WildCard76 (249) on 10/4/03
Month Views: 21 | Total Views: 3,874
Moderator: Ray Terry | Report This Song?
Song Tools

Comment

Songbook

Kudos

Show Chords

Print

IT'S MIDNIGHT CINDERELLA
Garth Brooks

==============================================================================================

Note: (this is the first guitar lick)


"...It's midnight Cinderella, but don't you worry none
'Cause I'm Peter Peter the pumpkin eater, and the party's just begun..."

E-----------------------------
B-----------------------------
G-----------------------------
D---3---1---------------------
A----------3p2p1--------------
E----------------4--1---------

==============================================================================================

Note: (this is the first solo/interlude)

  (Bb)               (F)       (Bb)      (F)                         (C)     (F)

E---------------------------------------------------------------------------------------------
B------------------------------------------------------------------------5--------------------
G-----3---3----3--3-------------------3----------------------------------5--------------------
D-----3---3----3--3-------------------3-----------------3-x-----------------1h3--1------------
A--1---------------------------0---1------------3--5-3------0--1--2---3------------3p2p1------
E--------------------1-1-3--4------------1-1-5--------------------------------------------4-1-

==============================================================================================

Note: (this is played after the last line of the song)


"...and the party has now begun..."

    (F)                             (Ab)       (F)

E----------------------------------------------------------------------------
B----------------------------------------------------------------------------
G-------------------------------------------------------------------b1---1---
D----3---3-----3--1------------------------------------------1h2h3-----------
A---------------------3p2p1---------------------------1h2h3------------------
E-----------------------------b4--1---4---4---4--1---------------------------


==============================================================================================
 Comments (click here to add a non-facebook comment)
Home | FAQs | Privacy | Terms | Advertise | Contact
Top 100 Tab Sites