Give Kudos?
Are you sure you want to give kudos to axehappy?

Add To Songbook?
Are you sure you want to add this song to your songbook?


2,722 bands | 35,147 songs
Search: Register FREE! | Login
Browse Songs:
Browse Bands:
Tool Panel
Discuss This Song

1 2 3 4 5



Garth Brooks - Shameless (Lead)
Album: Double Live (2008)
Submitter: axehappy (22) on 9/20/02 1 comment
Month Views: 1 | Total Views: 11,034
Moderator: Ray Terry | Report This Song?
Song Tools

Comment

Songbook

Kudos

Show Chords

Print

Garth Brooks  -  Shameless (lead)

By axehappy  -  axehappy at countrytabs.com


**************************************************************************************

x   =   dead note                                     bh   =   bend & hold

~   =   vibrato                                       r    =   release bend

br  =   bend & release                                b    =   bend

p   =   pulloff                                       \    =   slide down

/   =   slide up                                      h    =   hammer-on

**************************************************************************************



FIRST SOLO


   G            D/F#                 Em

   rake                     rake
E----------------------------------------12---------------------------
B-----10-8-10bh~~10r-brbr~~----15-12-15b---15-------------------------
G----x------------------------x--------------14br-p12-14-12b----------
D---x------------------------x------------------------------14-12-14\-
A--x------------------------x-----------------------------------------
E---------------------------------------------------------------------


       C   Bb      G                   D/F#              Em

E--------------------------------------2-3-5-------------------------------
B------------------3--3--3------------------3------------------------------
G--------3br-----0-2b-2b-2b-2br-0--0-0--------2-0---------9-11-11/12-12/14-
D-------2-----0-2-0------------------------------4brbr~~/------------------
A--0-2-3-------------------------------------------------------------------
E--------------------------------------------------------------------------

                   C       Bb

                              w\bar
E---------------------------------|
B-----12-15-------------11br~~\---|
G--14b-----14br-12-----9----------|
D------------------8/10-----------|
A---------------------------------|
E---------------------------------|



SECOND SOLO (behind vocals at end of song)

 
   G                 D/F#                  Em                         C

E--------0------------------------------------------7-10---------------------------
B--3--3---3-------------3-5-3-5b-5br-3-5-3~----8-10b----10br-8-8-10-8-10b-10b-10br-
G--2b-2b---2br-0-0-0-2/4----------------4---7/9-9-------------9--------------------
D----------------------------------------------------------------------------------
A----------------------------------------------------------------------------------
E----------------------------------------------------------------------------------


       Bb      G                    D/F#             Em

E---------------------------------------------------------7-10--8-7-8--7--7-------
B--8-8-10-8~~\-------------------------------------------8--------------10---10-8-
G---9------------------------7-9----------------------7/9-------------------------
D-----------------5-5-7-5-7/9---7/9~~7-5-7-5-4-5-4--------------------------------
A--------------5/7-7------------------------------5~~/----------------------------
E---------------------------------------------------------------------------------


   C    Bb             G               D/F#                      Em

E---------------------------------------------------------------------------------
B--10b~~10b-10b-10b-10/12--12-10-----------------------------------12h15p12-15b~~-
G-------------------------------12-12--11-12-11-9\7-------------------------------
D--------------------------------------------------9\7-5-4h5p4--------------------
A-------------------------------------------------------------5~~/----------------
E---------------------------------------------------------------------------------

                     
                    C       Bb            G                   D/F#
           
                                                 song starts to fade out...
E--12----------------------------15-17-15-17b-17b-17b-17b-17b-17b-17-17---|
B----15-------------15b--15br--17-----------------------------------------|
G------14br-12-14p12------------------------------------------------------|
D-------------------------------------------------------------------------|
A-------------------------------------------------------------------------|
E-------------------------------------------------------------------------|


 Comments (click here to add a non-facebook comment)
right on axe...this is perfect..
-lespaul303 | 7/27/2004
Home | FAQs | Privacy | Terms | Advertise | Contact
Top 100 Tab Sites