Give Kudos?
Are you sure you want to give kudos to saraevansjunkie?

Add To Songbook?
Are you sure you want to add this song to your songbook?


2,732 bands | 35,203 songs
Search: Register FREE! | Login
Browse Songs:
Browse Bands:
Tool Panel
Discuss This Song

1 2 3 4 5



Gary Allan - I Just Got Back From Hell (Intro)
Album: Tough All Over (2005)
Submitter: saraevansjunkie (0) on 3/29/06
Month Views: 2 | Total Views: 7,208
Moderator: Ray Terry | Report This Song?
Song Tools

Comment

Songbook

Kudos

Show Chords

Print

This is a song with so much hurt and passion in it. It is one of my favorites 
from “Tough All Over”. The person who got the chords did a great job, and I 
hope this can add to them. We all need to respect Gary Allan for what he has 
gone through and the awesome music he keeps bringing to us. 


INTRO:

	D				G
E-------------------------------------------------------
B-----3-----------3-----------------3--------------3----
G---------2---0h2---0h2------0--------0-----0--------0--
D---0---0---0---------------------0--------------0------
A-------------------------------2--------------2--------
E--------------------------3-------------3--------------

	D				G
E-------------------------------------------------------
B-----3-----------3-----------------3--------------3----
G---------2---0h2---0h2------0--------0-----0--------0--
D---0---0---0---------------------0--------------0------
A-------------------------------2--------------2--------
E--------------------------3-------------3--------------
 Comments (click here to add a non-facebook comment)
Home | FAQs | Privacy | Terms | Advertise | Contact
Top 100 Tab Sites