Give Kudos?
Are you sure you want to give kudos to saraevansjunkie?

Add To Songbook?
Are you sure you want to add this song to your songbook?


2,732 bands | 35,203 songs
Search: Register FREE! | Login
Browse Songs:
Browse Bands:
Tool Panel
Discuss This Song

1 2 3 4 5



Gary Allan - Tough Little Boys (Tab)
Album: See If I Care (2003)
Submitter: saraevansjunkie (0) on 3/25/06
Month Views: 1 | Total Views: 4,326
Moderator: Ray Terry | Report This Song?
Song Tools

Comment

Songbook

Kudos

Show Chords

Print

Verse:

E--------2---------------0--------------2-----------------3-----
B------3---3---3-------2---2---2------1---1---1---------3---3---
G----2-------2-------2-------2------2-------2-----------------0-
D--0---------------0--------------0------------------0----------
A---------------------------------------------------------------
E------------------------------------------------0h3------------

E------------3------------------------------------0-------------
B--------------3---3------------------3-------------0---0-------
G---------3------3--------2---2---------4-------0-----0---------
D-------5---------------0---4-------4---------2-----------------
A---------------------------------2---------2-------------------
E--0h3----------------------------------------------------------

E---------------------------------------------------------------
B--------0-0h2-0------------------------------------------------
G------2---------2----------------------------------------------
D----2-------------2--------------------------------------------
A--0------------------------------------------------------------
E---------------------------------------------------------------


E--------2---------------0--------------2-----------------3-----
B------3---3---3-------2---2---2------1---1---1---------3---3---
G----2-------2-------2-------2------2-------2-----------------0-
D--0---------------0--------------0------------------0----------
A---------------------------------------------------------------
E------------------------------------------------0h3------------

E------------3--------------------------------------------------
B--------------3---3------------------3----------0--------------
G---------3------3--------2---2---------4----------0------------
D-------5---------------0---4-------4---------2-----------------
A---------------------------------2---------2-------------------
E--0h3----------------------------------------------------------


E------------------2--------------------------------------------
B------2---------3---3------------------------------------------
G----2---2-----2------------------------------------------------
D--2---------0--------------------------------------------------
A---------------------------------------------------------------
E---------------------------------------------------------------
 Comments (click here to add a non-facebook comment)
Home | FAQs | Privacy | Terms | Advertise | Contact
Top 100 Tab Sites