Give Kudos?
Are you sure you want to give kudos to geetar81?

Add To Songbook?
Are you sure you want to add this song to your songbook?


2,831 bands | 36,009 songs
Search: Register FREE! | Login
Browse Songs:
Browse Bands:
Tool Panel
Discuss This Song

1 2 3 4 5



Gary Allan - What I'd Say (Lead)
Album: Alright Guy (2001)
Submitter: geetar81 (3) on 8/11/02
Month Views: 10 | Total Views: 3,718
Moderator: Ray Terry | Report This Song?
Song Tools

Comment

Songbook

Kudos

Show Chords

Print

Standard Tuning Lead Tab

"...went away"      
             E------------|
             B------------|
             G------------|
             D-6^7-6------|
             A-------7-0--|
             E------------|


Solo:

E-----------------------------------------------------------
B-----------------------------------------------------------
G-------------------4^6----8-9-8-8-6--6-6-------------------
D-6-7-9-9-7-7-6-7^9-----------------------9--9-9-7-6-6^7----
A-----------------------------------------------------------
E-----------------------------------------------------------

E--------------------------------5-5-4-2-2-0-----|
B--------------------------------5-5-5-2-2-0-4-4-|
G--------------------------------------------4-4-|
D-7-6--------------------------------------------|
A-----9-7-7^9----7-------------------------------|
E------------------9-7---------------------------|

Outro Lick: Similar to intro with different tail. 
(see intro)

E-------4-4---------------------|
B-5^4-5-------------------------|
G-----------4-4^6----1-2--2^4---|
D-------------------------------|
A-------------------------------|
E-------------------------------|

Enjoy.   - Geetar
 Comments (click here to add a non-facebook comment)
Home | FAQs | Privacy | Terms | Advertise | Contact
Top 100 Tab Sites