Give Kudos?
Are you sure you want to give kudos to mammy?

Add To Songbook?
Are you sure you want to add this song to your songbook?


2,831 bands | 36,024 songs
Search: Register FREE! | Login
Browse Songs:
Browse Bands:
Tool Panel
Discuss This Song

1 2 3 4 5



Gary Allan - What Would Willie Do? (Tab)
Album: Alright Guy (2001)
Submitter: mammy (16) on 3/11/02
Month Views: 10 | Total Views: 4,231
Moderator: Ray Terry | Report This Song?
Song Tools

Comment

Songbook

Kudos

Show Chords

Print

Tuned 1/2 step down. (Key of F#)

VERSE I 
         G                G7               Cadd9          C/A7                
---------3-----------------3---------------3---------------3------------------
-------3---3-------------3---3-----------3---3-----------3--3-----------------
-----0-------0---------0-------0-------0-------0-------0------0---------------
---0-----------0-----3----------3----2-----------2---2---------2--------------
--x----------------0---------------3---------------0--------------------------
-3----------------------------------------------------------------------------

      G	                                D  
----------3-----------------3---------------2-------------2-------------------
--------3---3-------------3---3---------3-----3-------3-----3-----------------
------0-------0---------0-------0-----2---2-----2---2---2-----2---------------
----0-----------0-----0-----------0-0------------0-0------------0-------------
--x-----------------x---------------------------------------------------------
-3----------------3-----------------------------------------------------------
                                                                              
         G                G7               Cadd9          C/A7                
---------3-----------------3---------------3---------------3------------------
-------3---3-------------3---3-----------3---3-----------3--3-----------------
-----0-------0---------0-------0-------0-------0-------0------0---------------
---0-----------0-----3----------3----2-----------2---2---------2--------------
--x----------------0---------------3---------------0--------------------------
-3----------------------------------------------------------------------------

      G                                D               Cadd9   D
----------3-----------------3---------------2---------------------------------
--------3---3-------------3---3---------3-----3------------------3------------
------0-------0---------0-------0-----2---2-----2----------0---2--------------
----0-----------0-----0-----------0-0-------------0------2---0----------------
--x-----------------x---------------------------------3-----------------------
-3----------------3-----------------------------------------------------------
                                                                              
(fill)G      Cadd9   G      D
------3-------3-------3-------2-----------------------------------------------
----3---3---3---3---3---3---3---3---------------------------------------------
--4-------5-------4-------2---------------------------------------------------
------------------------------------------------------------------------------
------------------------------------------------------------------------------
------------------------------------------------------------------------------
                                                          

VERSE II (same as VERSE I)

VERSE III
    G              G7               Cadd9             C/A7
-----------3------------3----------------3---------------3--------------------
---------3--3---------3---3------------3---3-----------3---3------------------
-------0------0-----0-------0--------0-------0-------0-------0----------------
-----0---------0--3-----------2----2-----------2---2-----------2--------------
---x-------------0---------------3---------------0----------------------------
-3----------------------------------------------------------------------------
                                                                              
  G                                       D
-----------3-----------------3-----------------2---------------2--------------
---------3---3-------------3---3-----------3-----3---------3-----3------------
-------0-------0---------0-------0-------2---2-----2-----2---2-----2----------
-----0-----------0-----0-----------0---0-------------0-0-------------0--------
---x-----------------x--------------------------------------------------------
-3-----------------3----------------------------------------------------------
                                                                              
  G                   G7             Cadd9          C/A7
------------3---------------3---------------3---------------3-----------------
----------3---3-----------3---3-----------3---3-----------3---3---------------
--------0-------0-------0-------0-------0-------0-------0-------0-------------
------0-----------0---3-----------2---2-----------2---2-----------2-----------
----x---------------0---------------3---------------0-------------------------
--3---------------------------------------------------------------------------
                                                                              
  G                                  D                 
------------3------------------3--------------2--------------2-----------------
----------3---3--------------3---3--------3-----3--------3-----3---------------
--------0-------0----------0------0-----2---2----2-----2---2-----2-------------
------0-----------0------0----------0-0------------0-0-------------0-----------
----x------------------x-------------------------------------------------------
--3------------------3---------------------------------------------------------
                                                                              
      Cadd9             D                Em  (quick D)     Cadd9
-----------3----------------2----------------0--------------3------------------
---------3---3----------3-----3------------0---0----------3---3----------------
-------0-------0------2---2-----2--------0--------0-----0-------0--------------
-----2-----------2--0-------------0----2--------------2-----------2------------
---3---------------------------------2--------------3--------------------------
-------------------------------------------------------------------------------

      G                                D               Cadd9   D
----------3-----------------3---------------2---------------------------------
--------3---3-------------3---3---------3-----3------------------3------------
------0-------0---------0-------0-----2---2-----2----------0---2--------------
----0-----------0-----0-----------0-0-------------0------2---0----------------
--x-----------------x---------------------------------3-----------------------
-3----------------3-----------------------------------------------------------
                                                                              
(fill)G      Cadd9   G      D
------3-------3-------3-------2-----------------------------------------------
----3---3---3---3---3---3---3---3---------------------------------------------
--4-------5-------4-------2---------------------------------------------------
------------------------------------------------------------------------------
------------------------------------------------------------------------------
------------------------------------------------------------------------------

VERSE IV

         G                G7               Cadd9          C/A7                
---------3-----------------3---------------3---------------3------------------
-------3---3-------------3---3-----------3---3-----------3--3-----------------
-----0-------0---------0-------0-------0-------0-------0------0---------------
---0-----------0-----3----------3----2-----------2---2---------2--------------
--x----------------0---------------3---------------0--------------------------
-3----------------------------------------------------------------------------

      G	                                D            
----------3-----------------3---------------2-------------2
 Comments (click here to add a non-facebook comment)
Home | FAQs | Privacy | Terms | Advertise | Contact
Top 100 Tab Sites