Give Kudos?
Are you sure you want to give kudos to dwm376s?

Add To Songbook?
Are you sure you want to add this song to your songbook?


2,732 bands | 35,200 songs
Search: Register FREE! | Login
Browse Songs:
Browse Bands:
Tool Panel
Discuss This Song

1 2 3 4 5



George Canyon - Enough Said (Intro)
Submitter: dwm376s (1) on 5/3/04
Month Views: 11 | Total Views: 2,023
Sound Byte: Listen
Moderator: joz104 | Report This Song?
Song Tools

Comment

Songbook

Kudos

Show Chords

Print

Enough Said Intro  


e ---------------------------------------------------------
b --5-5--4-4--2-2--0-0--------------5p4-5p4-4--------------
g ---4----4----4----4-----2\1----2-----4---4---------------
d ---------------------------4-2---------------------------
a ---------------------------------------------------------
e ---------------------------------------------------------

e ---------------------------------------------------------
b --5-5--4-4--2-2--0-0--------------5p4-5p4-4--------------
g ---4----4----4----4-----2\1----2-----4---4---------------
d ---------------------------4-2---------------------------
a ---------------------------------------------------------
e ---------------------------------------------------------
 Comments (click here to add a non-facebook comment)
Home | FAQs | Privacy | Terms | Advertise | Contact
Top 100 Tab Sites