Give Kudos?
Are you sure you want to give kudos to dwm376s?

Add To Songbook?
Are you sure you want to add this song to your songbook?


2,728 bands | 35,168 songs
Search: Register FREE! | Login
Browse Songs:
Browse Bands:
Tool Panel
Discuss This Song

1 2 3 4 5



George Canyon - Way Too Much (riffs) (Tab)
Submitter: dwm376s (2) on 5/3/04 2 comments
Month Views: 15 | Total Views: 1,989
Sound Byte: Listen
Moderator: joz104 | Report This Song?
Song Tools

Comment

Songbook

Kudos

Show Chords

Print

George Canyon Way Too Much: Riffs
 
 Time :27
e ---------------------------------------------------------
b ---------------------------------------------------------
g ---------------------------------------------------------
d ---/6-4-6-/7\6-4-2---------------------------------------
a ---------------------------------------------------------
e ---------------------------------------------------------

  Time :49
e ---------------------------------------------------------
b ---------------------------------------------------------
g ---------------------------------------------------------
d --/6-4-6-4p2---------------------------------------------
a -------------4-2-----------------------------------------
e ---------------------------------------------------------

  Time 1:41
e ---------------------------------------------------------
b ---------------------------------------------------------
g ---------------------------------------------------------
d --/6-4-6-4h6p4-2-----------------------------------------
a -----------------2---------------------------------------
e ---------------------------------------------------------
 Comments (click here to add a non-facebook comment)
what does 4h6p4 mean?

-pk1013 | 5/20/2004
4 hammer on to 6, pull off to 4
-dwm376s | 5/21/2004
Home | FAQs | Privacy | Terms | Advertise | Contact
Top 100 Tab Sites