Give Kudos?
Are you sure you want to give kudos to lmofle?

Add To Songbook?
Are you sure you want to add this song to your songbook?


2,715 bands | 35,121 songs
Search: Register FREE! | Login
Browse Songs:
Browse Bands:
Tool Panel
Discuss This Song

1 2 3 4 5



George Jones - Billy B. Bad (Tab)
Album: I Lived to Tell It All (1996)
Submitter: lmofle (322) on 9/22/02 1 comment
Month Views: 11 | Total Views: 5,707
Moderator: Ray Terry | Report This Song?
Song Tools

Comment

Songbook

Kudos

Show Chords

Print

You can have one guitar playing the chords and the other
doing this below. Play along with the CD just to have
fun with it...

Basic boogie rhythm:
Accompanying Bass Tab on guitar could be:

 While C chord is playing:
E-------------------------------------|
B-------------------------------------|
G----------0-0-2-2-3-3-2-2-0-0-0h2p0--|
D------2-2----------------------------|
A--3-3--------------------------------|
E-------------------------------------|

 While F chord is playing:
E-------------------------------------|
B----------1-1-3-3-4-4-3-3-1-1-1h3p1--|
G------2-2----------------------------|
D--3-3--------------------------------|
A-------------------------------------|
E-------------------------------------|

 While G chord is playing:
E-------------------------------------|
B-------------------------------------|
G-------------------------------------|
D----------0-0-2-2-3-3-2-2-0-0-0h2p0--|
A------2-2----------------------------|
E--3-3--------------------------------|

 Comments (click here to add a non-facebook comment)
THANK GOD!!!!!! REAL COUNTRY MUSIC!!!!!!
-WildCard76 | 7/9/2012
Home | FAQs | Privacy | Terms | Advertise | Contact
Top 100 Tab Sites