Give Kudos?
Are you sure you want to give kudos to Rondo Fondu?

Add To Songbook?
Are you sure you want to add this song to your songbook?


2,747 bands | 35,282 songs
Search: Register FREE! | Login
Browse Songs:
Browse Bands:
Tool Panel
Discuss This Song

1 2 3 4 5



George Strait - Blue Clear Sky (Bass)
Album: Blue Clear Sky (1996)
Submitter: Rondo Fondu (3) on 3/26/04
Month Views: 7 | Total Views: 6,166
Moderator: petstupid | Report This Song?
Song Tools

Comment

Songbook

Kudos

Show Chords

Print

Blue Clear Sky (Bassline)
by Mark D. Sanders, Bob DiPiero and John Jarrard

Gtr I (E A D G) - Bass

 Intro
  Moderately Q=131
 4/4
  Gtr I
  Q.   E Q  Q    Q.   E Q  Q    Q.   E Q  Q
|--------------|--------------|--------------|
|--------------|--------------|--------------|
|--------------|-0----0-0--0--|--------------|
|-0----0-0--0--|--------------|-0----0-0--0--|


  Q.   E Q  Q    Q.   E Q  Q    Q.   E Q  Q
|--------------|--------------|--------------|
|--------------|--------------|--------------|
|-0----0-0--0--|--------------|-0----0-0--0--|
|--------------|-0----0-0--0--|--------------|


  Q.   E Q  Q    Q.   E Q  Q    Q.   E Q  Q
|--------------|--------------|--------------||
|--------------|--------------|--------------||
|--------2--2--|--------------|--------4--2--||
|-0----0-------|-0----0-0--0--|-0----0-------||


 Verse 1
  Q.   E H      Q.   E H      Q.   E H
|-------------|-------------|-------------|
|-------------|-------------|-------------|
|-------------|-0----0-0----|-------------|
|-0----0-0----|-------------|-0----0-0----|


  Q.   E H      Q.   E H      Q.   E H
|-------------|-------------|-------------|
|-------------|-------------|-------------|
|-0----0-0----|-------------|-0----0-0----|
|-------------|-0----0-0----|-------------|


                                 Verses 2 & 3
  Q.   E Q  Q    Q.   E Q  Q      Q.   E H
|--------------|--------------||--------------|
|--------------|--------------||o-------------|
|--------2--2--|-----------2--||o-------------|
|-0----0-------|-0----0-0-----||--0----0-0----|


  Q.   E H      Q.   E H      Q.   E H
|-------------|-------------|-------------|
|-------------|-------------|-------------|
|-0----0-0----|-------------|-0----0-0----|
|-------------|-0----0-0----|-------------|


  Q.   E H      Q.   E H      Q.   E Q  Q
|-------------|-------------|--------------|
|-------------|-------------|--------------|
|-------------|-0----0-0----|--------2--2--|
|-0----0-0----|-------------|-0----0-------|


                                  Chorus
                                 $
  Q.   E Q  Q    E E E E E E E E   Q.   E Q  Q
|--------------|-----------------|--------------|
|--------------|-----------------|--------------|
|--------------|-----------------|--------------|
|-0----0-0--0--|-0-0-0-0-0-0-0-0-|-0----0-4--4--|


  Q.   E Q  Q    Q.   E Q  Q    Q.   E Q  Q
|--------------|--------------|--------------|
|--------------|--------------|--------------|
|-2----2----2--|--------------|-0----0-2--2--|
|--------2-----|-0----0-4--4--|--------------|


  Q.   E Q  Q    Q.   E Q  Q    Q  Q  Q  Q
|--------------|--------------|-------------|
|--------------|--------------|----------6--|
|--------------|-2----2-2--2--|-4--6--7-----|
|-0----0-4--5--|--------------|-------------|


                    1.
         To Coda
  E E E E E E E E   Q.   E Q  Q    Q.   E Q  Q
|-----------------|--------------|--------------|
|-----------------|--------------|--------------|
|-----------------|--------------|-0----0-0--0--|
|-5-5-5-5-7-7-7-7-|-0----0-0--0--|--------------|


                             Steel Guitar Solo
                              2.
  Q.   E Q  Q    W            Q.   E Q  Q
|--------------|-----------||--------------|
|--------------|----------o||--------------|
|--------------|-0--------o||--------------|
|-0----0-0--0--|-----------||-0----0-4--4--|


  Q.   E Q  Q    Q.   E Q  Q    Q.   E E E E E
|--------------|--------------|----------------|
|--------------|--------------|----------2-----|
|-0----0-0--0--|--------------|-0----0-4---4-2-|
|--------------|-0----0-4--4--|----------------|


                               D.S. al Coda
  Q.   E Q  Q    Q.   E E E E E   Q  Q  Q  Q
|--------------|----------------|-------------||
|--------------|--------------2-|-------------||
|--------------|-0----0-0-2-4---|-------2--2--||
|-0----0-4--4--|----------------|-0--4--------||


 Out-Chorus
  &
  Q.   E Q  Q    Q.   E Q  Q    Q.   E Q  Q
|--------------|--------------|--------------|
|--------------|--------------|--------------|
|--------------|-2----2----2--|--------------|
|-0----0-4--4--|--------2-----|-0----0-4--4--|


  Q.   E Q  Q    Q.   E Q  Q    Q.   E Q  Q
|--------------|--------------|--------------|
|--------------|--------------|--------------|
|--------------|--------2--4--|-2----2-2--2--|
|-5----5-7--7--|-0----0-------|--------------|


  Q  Q  Q  Q    E E E E E E E E   E E E E E E E E
|----------1--|-----------------|-----------------|
|-------2-----|-----------------|-----------------|
|-4--6--------|-0-0-0-0-2-2-2-2-|---------------0-|
|-------------|-----------------|-0-0-0-0-0-0-0---|


  +Q.   E Q  Q    Q.   E Q  Q    Q.   E Q  Q
|---------------|--------------|--------------|
|---------------|--------------|--------------|
|-(0)---0-2--2--|--------------|-0----0-0--0--|
|---------------|-0----0-0--0--|--------------|


  Q.   E Q  Q    Q.   E Q  Q    W
|--------------|--------------|------*|
|--------------|--------------|------*|
|--------------|-0----0-0--0--|------*|
|-0----0-0--0--|--------------|-0----*|


Duration Legend
---------------
W - whole; H - half; Q - quarter; E - 8th; S - 16th; T - 32nd; X - 64th; a - acciaccatura
+ - note tied to previous; . - note dotted; .. - note double dotted
Uncapitalized letters represent notes that are staccato (1/2 duration)
Irregular groupings are notated above the duration line
Duration letters will always appear directly above the note/fret number it represents the
duration for.  Duration letters with no fret number below them represent rests.  Multi-
bar rests are notated in the form Wxn, where n is the number of bars to rest for.  Low
melody durations appear below the staff

Tablature Legend
----------------
 h   - hammer-on
 p   - pull-off
 b   - bend
 pb  - pre-bend
 r   - bend release (if no number after the r, then release immediately)
 /\  - slide into or out of (from/to "nowhere")
 s   - legato slide
 S   - shift slide
n>  - natural harmonic
[n]  - artificial harmonic
n(n) - tapped harmonic
 ~   - vibrato
 tr  - trill
 T   - tap
 TP  - trem. picking
 PM  - palm muting
\n/  - tremolo bar dip; n = amount to dip
 \n  - tremolo bar down
 n/  - tremolo bar up
/n\  - tremolo bar inverted dip
 =   - hold bend; also acts as connecting device for hammers/pulls
 >  - volume swell (louder/softer)
 x   - on rhythm slash represents muted slash
 o   - on rhythm slash represents single note slash

Misc Legend
-----------
 |  - bar
||  - double bar
||o - repeat start
o|| - repeat end
*|  - double bar (ending)
 :  - bar (freetime)
 $  - Segno
 &  - Coda
Tempo markers - E/E./Q/Q./H/H.> = BPM(8/16=s8/s16), where s8 = swing 8ths, s16 = swing 16ths
 Comments (click here to add a non-facebook comment)
Home | FAQs | Privacy | Terms | Advertise | Contact
Top 100 Tab Sites