Give Kudos?
Are you sure you want to give kudos to simpleplanguita?

Add To Songbook?
Are you sure you want to add this song to your songbook?


2,751 bands | 35,343 songs
Search: Register FREE! | Login
Browse Songs:
Browse Bands:
Tool Panel
Discuss This Song

1 2 3 4 5



George Strait - I Cross My Heart Full Tab (Tab)
Album: 50 Number Ones (2004)
Submitter: simpleplanguita (0) on 7/18/05 1 comment
Month Views: 16 | Total Views: 18,766
Moderator: petstupid | Report This Song?
Song Tools

Comment

Songbook

Kudos

Show Chords

Print

Im 95% sure on this sing along with it to get the timing of the notes 
i will provide the chords above the words. Please rate

Chords played D G A Bm F#m7 Em7 Asus4 C F Dm7 G7sus4 A7 


Intro

  D           G     A       D 
E|------------------------------------------||
B|-----------0------------------------------||
G|-------2-2-0-2-0--------------------------||
D|---0-4-----------4-2-0---0-2-0---0--------||
A|-0---------------------0-------0----------||
E|------------------------------------------||

verse 
   Bm                   D        G           A          D
  Our love is un-con-di-tion-al; We knew it from the start
E|-----------0------------------------||
B|-----3-3-3---2-0------0-------------||
G|-----------------2------2-2-0-2-----||
D|-4------------------0---------------||
A|------------------------------------||
E|------------------------------------||

  Bm               F#m7           G                A
  I see it in your eyes; You can feel it from my heart
E|---------0--------------------------------------||
B|---3-3-3---2---0--------0-----------------------||
G|-----------------2---2--0--2-2------------------||
D|-4-----------------4------------4--2------------||
A|------------------------------------------------||
E|------------------------------------------------||

  Em7            D                  G                Asus4
  From here on af-ter lets stay the way we are right now
E|--------------------------------------------------------||
B|-----0--------------------------------------------------||
G|-0---------2-2------------------------0-----------------||
D|----------------2-0------0----2---4-------2----0-----2--||
A|--------------------0-----------------------------------||
E|--------------------------------------------------------||

 A          Em7                    D
  And share all the love and laugh-ter that a
E|------------------------------------------------||
B|-------------------0----------------------------||
G|----------0----0--------2----2------------------||
D|-2--4----------------------------2p0--0---2-----||
A|------------------------------------------------||
E|------------------------------------------------||

  C                  Em7   A
  Life-time  will al-low
E|--------------------------------||
B|--------------------------------||
G|------------2--0--2-------------||
D|-4---2--------------------------||
A|--------------------------------||
E|--------------------------------||

Chorus
  D                G        A       D
   I cross my heart and prom-ise to
E|------------------------------------------------||
B|------------------------------------------------||
G|---------2----2----2----2---0-------------------||
D|-0--4---------------------------4---------------||
A|------------------------------------------------||
E|------------------------------------------------||

                G                               A     
  Give all i've got to give to make all your dreams 
E|-------------------------------------------------||
B|--------------0--------------------0-------------||
G|---------2----0---2---2----0---2-------2---2-----||
D|-0---4-------------------------------------------||
A|-------------------------------------------------||
E|-------------------------------------------------||
        D 
  Come true 
E|----------------||
B|----------------||
G|-0-2------------||
D|-----4-2-0------||
A|----------------||
E|----------------||

             G  
  In all the world
E|--------------------------------||
B|-3--3---2p0-2p0-----------------||
G|--------------------------------||
D|--------------------------------||
A|--------------------------------||
E|--------------------------------||

 A              D     D        A        D   
  you'll never find a love as true as mine
E|------------------------------------------------||
B|-2-----2--0-------0------0----------------------||
G|--------------2------2------4-2-0-0-------------||
D|-------------------------------------2p0--------||
A|------------------------------------------------||
E|------------------------------------------------||

Verse 2 play the exact same notes and chords
here are the lyrics:
You will always be the miracle
That makes my life complete:
as long as theres a breath in me;
ill make yours just as sweet
as we look into the future,
its ats as far as we can see.
so lets make each tomorrow
be the best that it can be.

Then bridge 

  D        G               D        Em       A
  And if along the way we find a day it starts to storm 
E|-------------------------0------------------------------||
B|----------2---3---3----------3------0-------------------||
G|-------2--0----------2----------2------2------0---------||
D|-0--4--------------------------------------------4------||
A|--------------------------------------------------------||
E|--------------------------------------------------------||
D                    F             C     Dm7       G7sus4
   you've got the promise of my love to keep you warm
E|------------------------------------------------------||
B|----------------1----1---1--3---3---3--2-0--0---0-----||
G|------------2---2-------------------------------------||
D|-0------4-------3-------------------------------------||
A|------------------------------------------------------||
E|------------------------------------------------------||



heres the order 
verse1 
chorus 
verse2 
chorus 
bridge
then play in all the world youll never a love as true as mine 
then just the part a love as true as mine 
its kinda confusing but listen to the song and ull get it

Have fun email me with comments or concerns, please rate.


 Comments (click here to add a non-facebook comment)
great job even though that i cant totally play it but can someone please show how each one of the chords are played(besides your basic chords like g, d, em, bm, and so forth) I would truly appreciate it thanks and again good job
-clp2891 | 11/28/2005
Home | FAQs | Privacy | Terms | Advertise | Contact
Top 100 Tab Sites