Give Kudos?
Are you sure you want to give kudos to lmofle?

Add To Songbook?
Are you sure you want to add this song to your songbook?


2,722 bands | 35,151 songs
Search: Register FREE! | Login
Browse Songs:
Browse Bands:
Tool Panel
Discuss This Song

1 2 3 4 5



George Strait - It Ain't Cool To Be Crazy About You2 (Intro)
Album: 50 Number Ones (2004)
Submitter: lmofle (222) on 1/8/03
Month Views: 7 | Total Views: 4,455
Sound Byte: Listen
Moderator: petstupid | Report This Song?
Song Tools

Comment

Songbook

Kudos

Show Chords

Print

I do this a little different than Wildcard but that
Doesn’t make his wrong…

When doing this play the D chord and use your fingers to pick
all the strings at the same time (4 of them) or just use an
upward stroke to get the same sound. Will do a sound byte later…

Intro
   D                 A   D           A
E--2-2-2-2-2-0-2-0---0-|-2-2-2-2-2-0-0-|
B--3-3-3-3-3-3-3-3-0-2-|-3-3-3-3-3-3-2-|
G--2-2-2-2-2-2-2-2---2-|-2-2-2-2-2-2-2-|
D--0-0-0-0-0-0-0-0---2-|-0-0-0-0-0-0-2-|
A--------------------0-|-------------0-|
E----------------------|---------------|


   D                 A
E--2-2-2-2-2-0-2-0---0-|----------------|
B--3-3-3-3-3-3-3-3-0-2-|-2-3-2-3-2-3-2-5|
G--2-2-2-2-2-2-2-2---2-|----------------|
D--0-0-0-0-0-0-0-0---2-|----------------|
A--------------------0-|----------------|
E----------------------|----------------|


 Comments (click here to add a non-facebook comment)
Home | FAQs | Privacy | Terms | Advertise | Contact
Top 100 Tab Sites