Give Kudos?
Are you sure you want to give kudos to Koichi Kondo?

Add To Songbook?
Are you sure you want to add this song to your songbook?


2,761 bands | 35,450 songs
Search: Register FREE! | Login
Browse Songs:
Browse Bands:
Tool Panel
Discuss This Song

1 2 3 4 5



Gord Bamford - When Your Lips Are So Close (Chord)
Album: Gord Bamford - Country Junkie (2013)
Submitter: Koichi Kondo (82) on 9/24/13 4 comments
Month Views: 10 | Total Views: 17,640
Moderator: Ray Terry | Report This Song?
Song Tools

Comment

Songbook

Kudos

Show Chords

Print

When Your Lips Are So Close
Recorded by Gord Bamford

(Capo on 2)

Intro.:  |(Bm) |(G) |(D) |(A) | x 2

(Bm)Girl, I knew it must be you, 'cause (G)it got hotter in this room
(D)You walked in, laid that spin (A)
You (Bm)look so good in the neon light, I (G)drink you in with thirsty eyes
(D) Long sip of your cool smile (A)

(Chorus)
(Bm)Girl, I wanna reach right out, (G)wrap you in my arms right now
(D)Never let go, never let go (A)
'Cause (Bm)I just gotta taste you, baby, (G) you know it drives me crazy
(D) To be so far away (A) when your lips are so close

Solo:  |(Bm) |(G) When your lips are so close |(D) |(A) |

(Bm)You might be right next to me, but (G)girl, it feels like miles between
(D) My hands and your skin (A)
(Bm)You know it what I'm thinking of, (G)small talk just won't be enough
(D) Can't wait for your touch (A)

(Chorus)
(Bm)Girl, I wanna reach right out, (G)wrap you in my arms right now
(D)Never let go, never let go (A)
'Cause (Bm)I just gotta taste you, baby, (G) you know it drives me crazy
(D) To be so far away (A) when your lips are so close

Solo:  |(Bm) |(G) When your lips are so close |(D) |(A) |(Bm) |(G) |(D) |(A) |

(Chorus)
(Bm)Girl, I wanna reach right out, (G)wrap you in my arms right now
(D)Never let go, never let go (A)
'Cause (Bm)I just gotta taste you, baby, (G) you know it drives me crazy
(D) To be so far away (A) when your lips are so close

(Tag)
|(Bm) |(G) When your lips are so close, |(D) |(A) when your lips are so close |
|(Bm) |(G) When your lips are so close, |(D) |(A) lips are so close |
|(Bm) |(G) Lips are so close, |(D) |(A) |(Bm) -----
 
 Comments (click here to add a non-facebook comment)
Thnaks so much for the chords to this song. Do you or anyone have the tabs for the guitar solo?
-nexman | 10/14/2013
(Capo on 2)
Solo.
(Bm) (G) (D) (A)
E |------------|--------0---|-2----5-2---|-0--------|
B |-0----2-3---|-0----3-----|------------|----------|
G |------------|------------|------------|----------|
D |------------|------------|------------|----------|
A |------------|------------|------------|----------|
E |------------|------------|------------|----------|

-Koichi Kondo | 10/16/2013
Thank you Koichi for posting the tabs. With your cords and tabs I can play most of the song. I like playing along to the recording. I am having trouble with the solo guitar that plays in the middle of the song. I must have a tin ear. I canít seem to get it right. Do you happen to have tabs for that part of the songs?

Thanks

-nexman | 10/22/2013
Solo.2
(Bm) (G) (D) (A)
E |-------------|------------|-----------------|----------|
B |-------------|------------|-----------------|----------|
G |-------------|------------|-----------------|----------|
D |-------------|------------|---0-2/4-2h4p2p2-|----------|
A |-2-4/5-4-2-0-|------------|-0---------------|-4--------|
E |-------------|-3----------|-----------------|----------|

(Bm) (G) (D) (A)
E |-------------|-2-b3-------|---2-3-5-3-2h3r2|-0--------|
B |-0-2-3--2--0-|------------|---3------------|----------|
G |-3-----------|------------|---2------------|----------|
D |-3-----------|------------|---0------------|----------|
A |-------------|------------|----------------|----------|
E |-------------|------------|----------------|----------|

-Koichi Kondo | 10/22/2013
Home | FAQs | Privacy | Terms | Advertise | Contact
Top 100 Tab Sites