Give Kudos?
Are you sure you want to give kudos to mammy?

Add To Songbook?
Are you sure you want to add this song to your songbook?


2,831 bands | 36,009 songs
Search: Register FREE! | Login
Browse Songs:
Browse Bands:
Tool Panel
Discuss This Song

1 2 3 4 5



Great Divide - If Not For You (Intro)
Submitter: mammy (8) on 3/28/03
Month Views: 11 | Total Views: 2,814
Moderator: Beau2137 | Report This Song?
Song Tools

Comment

Songbook

Kudos

Show Chords

Print

If Not for You - intro
by The Great Divide

/  =  slide up
\  =  slide down
b  =  bend

~^~^~^~^~^~^~^~^~^~^~^~^~^~^~^~^~^~^~^~^~^~^~^~^~^~^~^~^~^~^~^~^~^~^
Intro

e---------------------3-3-------------------------------------e
B-----------------1/3-----3\1---------------------------------B
G-----------------------------2/4-----------------------------G
D-------5-7b7b--2---------------------------------------------D
A---5-7-------------------------------------------------------A
E-------------------------------------------------------------E
                                                                              

e-------------------------------------------------------------e
B-------------------------------------------------------------B
G-------------7-------------7---------------------------------G
D-------5-7/9---9\7--5----7---7---5---------------------------D
A---5-7----------------5--------7-----------------------------A
E-------------------------------------------------------------E

~^~^~^~^~^~^~^~^~^~^~^~^~^~^~^~^~^~^~^~^~^~^~^~^~^~^~^~^~^~^~^~^~^~^
enjoy :)
mammycc_05 at yahoo.com
 Comments (click here to add a non-facebook comment)
Home | FAQs | Privacy | Terms | Advertise | Contact
Top 100 Tab Sites