Give Kudos?
Are you sure you want to give kudos to taylor7458?

Add To Songbook?
Are you sure you want to add this song to your songbook?


2,865 bands | 36,224 songs
Search: Register FREE! | Login
Browse Songs:
Browse Bands:
Tool Panel
Discuss This Song

1 2 3 4 5



Great Divide - Yesterday Road - Fiddle (Tab)
Submitter: taylor7458 (1) on 5/26/10
Month Views: 9 | Total Views: 3,334
Moderator: Beau2137 | Report This Song?
Song Tools

Comment

Songbook

Kudos

Show Chords

Print

Yesterday Road - Fiddle Part - Jack

Legend
0   1   2   3   4   5   6   7
E||-F-|-F#|-G-|-G#|-A-|-A#|-B-|-------
A||-A#|-B-|-C-|-C#|-D-|-D#|-E-|-------
D||-Eb|-E-|-F-|-F#|-G-|-G#|-A-|-------
G||-G#|-A-|-A#|-B-|-C-|-C#|-D-|-------


----------------------------------------------
----0---0--5-4-2-0--5-4-2-0----0---0--5-4-2-0-
--0---2----------------------0---2------------
----------------------------------------------
           Solo
----------|--/5----2h5p2-0--------------------
--2-4-2-0-|------------------4-4--0h4p0-------
----------|------------------------------4----
----------|-----------------------------------


--/5--2-5-2-0----------|----------------------
--------------5-4-2-0--|---0---0-5-4-2-0--5-4-
-----------------------|-0---2----------------
-----------------------|----------------------


----------------------------------------------
-2-0---0---0--5-4-2-0---2-0-0-----------------
-----0---2------------------------------------
----------------------------------------------
 Comments (click here to add a non-facebook comment)
Home | FAQs | Privacy | Terms | Advertise | Contact
Top 100 Tab Sites