Give Kudos?
Are you sure you want to give kudos to lmofle?

Add To Songbook?
Are you sure you want to add this song to your songbook?


2,715 bands | 35,121 songs
Search: Register FREE! | Login
Browse Songs:
Browse Bands:
Tool Panel
Discuss This Song

1 2 3 4 5



Hank Williams, Jr. - Old Habits (Intro)
Album: Greatest Hits Vol. 1 (1993)
Submitter: lmofle (323) on 3/31/02 3 comments
Month Views: 11 | Total Views: 8,598
Sound Byte: Listen
Moderator: bddotnet | Report This Song?
Song Tools

Comment

Songbook

Kudos

Show Chords

Print

Pick the 4th string then strum UP (not down) then play 
the D chord with alternating bass

E||---9-----9----7---7-|
B||---10---10----8---8-|
G||---11---11----9---9-|
D||-0----0-----0---0---|
A||--------------------|
E||--------------------|
 Comments (click here to add a non-facebook comment)
You might like it a little better this way.


pre> E||---9----9----7---7-|
B||---10---10---8---8-|
G||---9----9----7---7-|
D||-0----0----0---0---|
A||-------------------|
E||-------------------|/pre>
-jasonrf | 12/13/2004
That definately sounds way better.
-CKirschner07 | 6/13/2005
pre>e----7---7---5---5---2---I
B----8---8---6---6---3---I
G----7---7---5---5---2---I
D--0---0---0----0----0---I
-popziggy | 9/5/2008
Home | FAQs | Privacy | Terms | Advertise | Contact
Top 100 Tab Sites