Give Kudos?
Are you sure you want to give kudos to rebelwithin?

Add To Songbook?
Are you sure you want to add this song to your songbook?


2,722 bands | 35,144 songs
Search: Register FREE! | Login
Browse Songs:
Browse Bands:
Tool Panel
Discuss This Song

1 2 3 4 5



Hank Williams III - Gettin' Drunk And Fallin' Down Capo 2/w Intro (Chord)
Album: The Rebel Within (2010)
Submitter: rebelwithin (0) on 10/20/11
Month Views: 2 | Total Views: 7,714
Moderator: nodferatu1 | Report This Song?
Song Tools

Comment

Songbook

Kudos

Show Chords

Print

Tabbed by Rebelwithin
Getting' Drunk and Fallin' Down
Written & Recorded by Hank Williams III

Thank you Koichi Kondo for the lyrics hope you don't mind me copy pasting them.


Bsus4          OR   
E|--------0---------------------------|
B|------5-----------------------------|
G|----4-----------------------9-------|
D|--2-----------------------9---------|
A|------------------------7-----------|
E|----------------------0-------------|
I can not find the name of this chord that will correctly show on the site.
If anyone knows what it is please leave a comment and i will correct it. TY 


(Capo on 2)

Intro.:  Guitar solo to (A) x 4bars


E|---------------------------------------------------------------------|
B|---------------------------------------------------------------------|
G|---------------------------------------------------------------------|
D|---------------------------------------------------------------------|
A|-----------2h4--2h4--4-4-2-0---0-----------------------------0-------|
E|---0-2-4-----------------------------2-0---0-0-0---0-0-0h2h4---------|




(A)Gettin' drunk and fallin' down has (D)taken its toll on (A)me
I like livin' life full throttle, but now it (B5)seems like I'm runnin' outta (Bsus4)steam
I'll (A)never give up on havin' fun and raisin' (D)hell in Tennes-(A)see
I like a good time livin' on the run with my (Bsus4)good friend miser-(A)y

'Cuase gettin' (A)drunk and fallin' down, I'd say I'm known all over (B5)town (Bsus4)
It's the (A)kind of livin' that's gonna (D)put me in the (A)ground
Gettin' drunk and (B5)fallin' (A)down

Inst.:  |(A) |(A) |(A) |(A) |(A) |(A) |(A) |(B5) |(Bsus4) |
         |(A) |(A) |(D) |(A) |(A) |(Bsus4) |(A) |(A) |

Well I (A)did my best to stay on the (D)good side of the (A)tracks
But my friend Billy Joe's done got me drinkin' (B5)back outta the paper (Bsus4)sack
And (A)now I'm here drinkin' all a-(D)lone at the (A)bar
Buck Owens a-singin' about his (Bsus4)honky-tonk (A)scar

'Cuase gettin' (A)drunk and fallin' down, I'd say I'm known all over (B5)town (Bsus4)
It's the (A)kind of livin' that's gonna (D)put me in the (A)ground
Gettin' drunk and (Bsus4)fallin' (A)down

(Tag)
Gettin' (A)drunk and (E5)fallin' (A)down |(A) |(A) |(A) |(Bsus4) --- |(A) -----
 
 Comments (click here to add a non-facebook comment)
Home | FAQs | Privacy | Terms | Advertise | Contact
Top 100 Tab Sites