Give Kudos?
Are you sure you want to give kudos to taylor7458?

Add To Songbook?
Are you sure you want to add this song to your songbook?


2,747 bands | 35,276 songs
Search: Register FREE! | Login
Browse Songs:
Browse Bands:
Tool Panel
Discuss This Song

1 2 3 4 5



Honeybrowne - Julie At The Bar Harmonica (Lead)
Submitter: taylor7458 (1) on 6/16/10
Month Views: 1 | Total Views: 2,267
Moderator: residentroadie | Report This Song?
Song Tools

Comment

Songbook

Kudos

Show Chords

Print

Julie at the Bar Harmonica solo for the guitar
HoneyBrowne
Tabbed by Jackson


Harmonica solo for guitar
-15----13-12---13-12---------15---13-12---13-12------
---------------------15-13----------------------15-13
-----------------------------------------------------
-----------------------------------------------------
-----------------------------------------------------
-----------------------------------------------------
                                   Slow   
-13-12-13-12-------15-13-12-13-12--------------------
-------------15-13----------------15---13------------
-------------------------------------------14--12----
-----------------------------------------------------
-----------------------------------------------------
-----------------------------------------------------

--13--13--12--13-12------------------------
--------------------15--13-----------------
-------------------------------------------
-------------------------------------------
-------------------------------------------
-------------------------------------------

2nd Harmonica solo                                           
-15-13-12--13-12--------15-13-12-13---------13-12--13-12----
-----------------15-13--------------15---13-----------------
------------------------------------------------------------
------------------------------------------------------------
------------------------------------------------------------
------------------------------------------------------------

---------15-13-12-13-12-------------------------------------
--15-13-----------------15----------------------------------
------------------------------------------------------------
------------------------------------------------------------
------------------------------------------------------------
------------------------------------------------------------
 Comments (click here to add a non-facebook comment)
Home | FAQs | Privacy | Terms | Advertise | Contact
Top 100 Tab Sites