Give Kudos?
Are you sure you want to give kudos to countryman2009?

Add To Songbook?
Are you sure you want to add this song to your songbook?


2,751 bands | 35,343 songs
Search: Register FREE! | Login
Browse Songs:
Browse Bands:
Tool Panel
Discuss This Song

1 2 3 4 5



Hunter Hayes - All You Ever (Chord)
Album: Hunter Hayes (2011)
Submitter: countryman2009 (2) on 7/28/12
Month Views: 11 | Total Views: 13,111
Moderator: SaraR08 | Report This Song?
Song Tools

Comment

Songbook

Kudos

Show Chords

Print

"All You Ever"

Capo on 2th Fret

Chords

C#m


E--------------
D-------------
G------6-------
D-----6-------
A---4----------
E--------------


E

E--------------
D-------------
G-1------------
D--2----------
A---2----------
E--------------


Bm


E--------------
D-------------
G------4-------
D-----4-------
A---2----------
E--------------


A6


E--------------
D-------------
G------2-------
D-----2-------
A--------------
E--------------

-------------------------------------------------

Intro

E---------------
D--------------
G------4---1----
D-1-2----------
A---------------
E---------------

E---------------
D--------------
G------4---1----
D-1-2-------4--
A---------------
E---------------


Verse

(C#m)You give me chances and (E)I let you down
You (Bm)waited for words that I (A6)couldn't get out
I (C#m)have no excuses for the (E)way that I am
I was (Bm)clueless then, I couldn't unders(A6)tand


Chorus

That all that you (E)wanted
And all that you (Bm)needed
Was a (C#m)side of me I never let you (A6)see

And I wish I could (E)love you
And make you be(Bm)lieve it
Because that (C#m)all you ever wanted
It's (A6)all you ever wanted,

Repeat Intro 1x
From me, from me


Verse

(C#m)Could I be selfish, or (E)Lost in my pride
(Bm)Afraid to be forward or just too scared to (A6)try
And (C#m)now I'm without you, And it (E)took distance to see
That (Bm)losing you, means losing every(A6)thing

Chorus

When all that you (E)wanted
And all that you (Bm)needed
Was a (C#m)side of me I never let you (A6)see

And I wish I could (E)love you
And make you be(Bm)lieve it
Because that (C#m)all you ever wanted
It's (A6)all you ever wanted,

Instrumental

E, Bm, C#m, A6 (1x)


from me

And is it (E)too late and are you too (Bm)far
To turn (C#m)around and let me be... let me (A)be



All that you wanted
And all that you needed
I'll show the side of me I never let you see
I wish I could love you
And make you believe it
Because that's all you ever wanted
That's all you ever wanted
And that's all you ever wanted
It's all you ever wanted
From me
Oh, from me 
 Comments (click here to add a non-facebook comment)
Home | FAQs | Privacy | Terms | Advertise | Contact
Top 100 Tab Sites