Give Kudos?
Are you sure you want to give kudos to lmofle?

Add To Songbook?
Are you sure you want to add this song to your songbook?


2,722 bands | 35,151 songs
Search: Register FREE! | Login
Browse Songs:
Browse Bands:
Tool Panel
Discuss This Song

1 2 3 4 5



Jack Ingram - Only Daddy That'll Walk The Line (Intro)
Album: Live Wherever You Are (2006)
Submitter: lmofle (323) on 4/28/03 2 comments
Month Views: 6 | Total Views: 3,695
Moderator: justinrbird39 | Report This Song?
Song Tools

Comment

Songbook

Kudos

Show Chords

Print

Only Daddy Thatíll Walk The Line
By Jack Ingram
Off the Texas Outlaws CD

Drop D tuning

Intro riff

e-------------------------------|
B-------------------------------|
G-------------------------------|
D----------------------0--------|
A--5-5-0-3-3-0-2-2-0-2----------|
E------------------------3bp0-0-|

Repeat twice


Great job on this song by Jack!!! Awesome!!
 Comments (click here to add a non-facebook comment)
it's VERY close to the intro rif, but during the song I think they
do a little different version.....

e-------------------------------|
B-------------------------------|
G-------------------------------|
D----------------------0--------|
A--5-5-0-3-3-0-2-2-0-2---2-0----|
E-------------------------------|

that's what I'm hearing, but I could very well be wrong. :-)
-TxDieselKid | 5/1/2003
It doesn't go to the 3 it goes to the 4 them to the 2.
-Squirrel361 | 8/22/2014
Home | FAQs | Privacy | Terms | Advertise | Contact
Top 100 Tab Sites