Give Kudos?
Are you sure you want to give kudos to rvacher?

Add To Songbook?
Are you sure you want to add this song to your songbook?


2,729 bands | 35,172 songs
Search: Register FREE! | Login
Browse Songs:
Browse Bands:
Tool Panel
Discuss This Song

1 2 3 4 5



Jason Aldean - Johnny Cash Live Solo (Solo)
Submitter: rvacher (0) on 9/2/09
Month Views: 1 | Total Views: 2,917
Moderator: countrygirl2727 | Report This Song?
Song Tools

Comment

Songbook

Kudos

Show Chords

Print

Hey y'all, if you go to youtube and watch any one of the Johnny Cash live videos the 
guitarist plays a few different solos that are slight variations of the studio 
version made simple for live performance. This is a compilation of 2 of those solos 
which I now use when my band plays this song. Let's not argue about what key it's 
REALLY in, or how you SHOULD tune, I just know that the guitars are in standard 
tuning ( A 440 )and I play it in E.

e------------V1/2 step bend--------------------------------------------
b----------8bv---------10-9-------------9/10-9---------10/1212-12---12
g--7/99/7------h9-7---------6--7/99/7--------9/7---------------------
d--------------------7-------------------------------------------------
a----------------------------------------------------------------------
e----------------------------------------------------------------------


e-----12-------12---------12-------------------------
b-15b---12h15b---12h15b---12h15brp12----------------
g-------------------------------------14p12----------
d-------------------------------------------14p12h14--
a-----------------------------------------------------
e------------------------------------------------------



-------------------------------9P010P012P0-----17fb>>>vibrato-----
-------------------10P0-12P0--------------------------------
--9p0--11p0--12p0--------------------------------------------
-------------------------------------------------------------
-------------------------------------------------------------
-------------------------------------------------------------
 Comments (click here to add a non-facebook comment)
Home | FAQs | Privacy | Terms | Advertise | Contact
Top 100 Tab Sites