Give Kudos?
Are you sure you want to give kudos to DaveWH?

Add To Songbook?
Are you sure you want to add this song to your songbook?


2,987 bands | 36,846 songs
Search: Register FREE! | Login
Browse Songs:
Browse Bands:
Tool Panel
Discuss This Song

1 2 3 4 5



Jerry Reed - Amos Moses (Intro)
Submitter: DaveWH (3) on 6/14/03
Month Views: 279 | Total Views: 9,945
Moderator: pettyjr | Report This Song?
Song Tools

Comment

Songbook

Kudos

Show Chords

Print

Amos Moses   by Jerry Reed


tabbed by davewh at cox.net


Intro

------------------
x = mute string
v = down stroke
^ = up stroke
b = bend
------------------

  v ^   v ^   v ^   v ^ v
|-------------------------||---------------------------------||
|-------------------------||------------1-------------1------||
|-x-x---x-x---x-x---x-x-x-||---------2-----2--0--0-2-----2--.||
|-------------------------||-----2--------------------------.|| repeat once
|-------------------------||-----0---------------------------|| 
|-------------------------||-3b------------------------------||



||---------------------------------||
||------------1-------------1------||
||-0-0-2---2-----2--0--0-2-----2--.||
||--------------------------------.|| repeat once 
||---------------------------------|| 
||---------------------------------||


 Comments (click here to add a non-facebook comment)
Home | FAQs | Privacy | Terms | Advertise | Contact
Top 100 Tab Sites