Give Kudos?
Are you sure you want to give kudos to WildCard76?

Add To Songbook?
Are you sure you want to add this song to your songbook?


2,626 bands | 34,395 songs
Search: Register FREE! | Login
Browse Songs:
Browse Bands:
Tool Panel
Discuss This Song

1 2 3 4 5





Jimmy Buffett - They Don't Dance Like Carmen (Intro)
Album: A White Sport and a Pink Crustacean (1973)
Submitter: WildCard76 (193) on 11/15/03
Month Views: 16 | Total Views: 3,031
Moderator: guntemar | Report This Song?
Song Tools

Comment

Songbook

Kudos

Show Chords

Print

THEY DON'T DANCE LIKE CARMEN
Jimmy Buffett

Intro

E-------------------------------------------------------------- 
B---------------------------------1---x----------2h3---2------- 
G---------------------------------0---x------------------------ 
D-------------------------------------x------------------------ 
A-----------0--3--0-------3-----------x---0--------------------
E------3------------------------------------------------------- 

E-------------------------------------------------------------- 
B------------1------x------------3-------x--------------------- 
G------------2------x------------4-------x--------------------- 
D------------3------x------------5-------x--------------------- 
A-------------------x--------------------x--------------------- 
E---0---1--------------------3--------------------------------- 
 Comments (click here to add a non-facebook comment)
Home | FAQs | Privacy | Terms | Advertise | Contact
Top 100 Tab Sites