Give Kudos?
Are you sure you want to give kudos to Stallion?

Add To Songbook?
Are you sure you want to add this song to your songbook?


2,976 bands | 36,759 songs
Search: Register FREE! | Login
Browse Songs:
Browse Bands:
Tool Panel
Discuss This Song

1 2 3 4 5



Joe Diffie - Pickup Man (Intro)
Album: Third Rock from the Sun (2007)
Submitter: Stallion (1) on 3/10/02 3 comments
Month Views: 603 | Total Views: 19,683
Moderator: Ray Terry | Report This Song?
Song Tools

Comment

Songbook

Kudos

Show Chords

Print

Joe Diffie - Pickup Man (intro)

By Stallion ksteberg at tiscali.no

Just another suggestion to play this riff.
This is the intro/outro riff.

************************************************************************
p = pulloff	/ = slide up	h = hammer on

~ = vibrato	b = bend	bh = bend and hold

\ = slide down	! harmonic	r = release bend

************************************************************************

				                      
E-----------------------------------------------------------
B----3-2-1--------------------------------------------------
G--0-------3-0------------------0-0----0-3p0----0-0-----0---
D--------------3-0---------0----0---3b-------3b-----0h3-----
A------------------4-3-1/2----------------------------------
E----------------------------2b-----------------------------


                  
E----------------------------------|
B----------------------------------|
G-----0-0----0-3p0----0-0-----0----|
D-----0---3b-------3b-----0h3------|
A----------------------------------|
E--2b------------------------------|






			

 Comments (click here to add a non-facebook comment)
purdy close, sounds good manard
-skoalferthesoal | 10/16/2004
skoalforthesoul needs some copenhagen
-lovinitmtboy | 3/14/2005
Excellent job! I just want to add that I play an F with the D at the very beginning for some tension. I think itís that way on the record too ...

E----1----------------------------
B----3-2-1------------------------
G--0-------3-0------------------0-
D--------------3-0---------0----0-
A------------------4-3-1/2--------
E----------------------------2b---

-daveymac | 4/24/2005
Home | FAQs | Privacy | Terms | Advertise | Contact
Top 100 Tab Sites