Give Kudos?
Are you sure you want to give kudos to mkrousie?

Add To Songbook?
Are you sure you want to add this song to your songbook?


2,870 bands | 36,242 songs
Search: Register FREE! | Login
Browse Songs:
Browse Bands:
Tool Panel
Discuss This Song

1 2 3 4 5



Joe Nichols - The Shape I'm In (Lead)
Submitter: mkrousie (3) on 8/5/12
Month Views: 11 | Total Views: 4,653
Moderator: Ray Terry | Report This Song?
Song Tools

Comment

Songbook

Kudos

Show Chords

Print

Joe Nichols: The Shape I'm In

Intro:

E[------------------------------------------------------------------------]
B[----------------3-4-4h6-3---------------------3--6-8--11\---------------]
G[-----3h5-5/7-----------------3-3-5/7-3(0)-------------------------------]
D[--3/5--------3h5----------3h5--------------3h5--------------------------]
A[-1----------------------------------------------------------------------]
E[------------------------------------------------------------------------]

Solo:
E[------------------------------------------------------------------------------]
B[-5--5----------5--5------------6-6--------------------------------------------]
G[-5b-5b-5p3-3---5b-5b-5p3--3-5/7-7-7-5r5b-5-5b-r-3-3---------------------------]
D[----------5-------------5--------------------------5-3------------------------]
A[------------------------------------------------------5-3-1-1-----------------]
E[-------------------------------------------------------------5-3-1------------]

E[--------------------------------11-13-15-15/18\-------------------------------]
B[----------------3-4-6-8-11-11/13----------------------------------------------]
G[--------3h5/7-3---------------------------------------------------------------]
D[-----3-5----------------------------------------------------------------------]
A[--3/5-------------------------------------------------------------------------]
E[-1----------------------------------------------------------------------------]

 Comments (click here to add a non-facebook comment)
Home | FAQs | Privacy | Terms | Advertise | Contact
Top 100 Tab Sites