Give Kudos?
Are you sure you want to give kudos to WildCard76?

Add To Songbook?
Are you sure you want to add this song to your songbook?


2,618 bands | 34,322 songs
Search: Register FREE! | Login
Browse Songs:
Browse Bands:
Tool Panel
Discuss This Song

1 2 3 4 5





John Anderson - Swingin' (Intro)
Album: John Anderson - Greatest Hits (1996)
Submitter: WildCard76 (225) on 1/22/03
Month Views: 71 | Total Views: 6,581
Moderator: pettyjr | Report This Song?
Song Tools

Comment

Songbook

Kudos

Show Chords

Print

SWINGIN'
John Anderson
(this is ALL power chords)

INTRO


E----------------------------------------------------------------------------
B----------------------------------------------------------------------------
G----------------------------------------------------------------------------
D----------------------------------------------------------------------------
A---/9-9-9-9----9-9-9-9----9-9-9-9----9---8---7-7-7-7---7-7-7-7---7-7-7-7----
E---/7-7-7-7----7-7-7-7----7-7-7-7----7---6---5-5-5-5---5-5-5-5---5-5-5-5----

E----------------------------------------------------------------------------
B----------------------------------------------------------------------------
G----------------------------------------------------------------------------
D----------------------------------------------------------------------------
A---2-2-4-4-5-5-4----2-2-4-4-5-5-4----2-2-4-4-5-5-4--------------------------
E---0-0-0-0-0-0-0----0-0-0-0-0-0-0----0-0-0-0-0-0-0--------------------------
 Comments (click here to add a non-facebook comment)
Home | FAQs | Privacy | Terms | Advertise | Contact
Top 100 Tab Sites