Give Kudos?
Are you sure you want to give kudos to geetar81?

Add To Songbook?
Are you sure you want to add this song to your songbook?


2,831 bands | 36,009 songs
Search: Register FREE! | Login
Browse Songs:
Browse Bands:
Tool Panel
Discuss This Song

1 2 3 4 5



John Michael Montgomery - Cowboy Love (1st Verse Licks) (Tab)
Album: John Michael Montgomery (1995)
Submitter: geetar81 (3) on 3/16/03 1 comment
Month Views: 10 | Total Views: 4,122
Moderator: Ray Terry | Report This Song?
Song Tools

Comment

Songbook

Kudos

Show Chords

Print

This intro is played at 0:16 of the song when the first
verse begins...


|-5-5-5-5----3-3----x-x--------
|-5-5-5-5----3-3----3-3--------
|-------------------2-2--------
|------------------------------
|------------------------------
|------------------------------

|-5-5-5-5-5---x-3-x------------
|-5-5-5-5-5---x-3-3------------
|---------------0-2------------
|-----------------0-------------
|------------------------------
|------------------------------
                       
|-5-5-5-5-5-5-5-5--(0)------------
|-5-5-5-5-5-5-5-5--(0)------------
|------------------(1)------------
|------------------(2)------------
|------------------(2)------------
|------------------(0)------------
                     This part is muted and strummed.
 Comments (click here to add a non-facebook comment)
Perfect. Nice job.
-cmtboy | 3/16/2003
Home | FAQs | Privacy | Terms | Advertise | Contact
Top 100 Tab Sites