Give Kudos?
Are you sure you want to give kudos to Stallion?

Add To Songbook?
Are you sure you want to add this song to your songbook?


2,839 bands | 36,103 songs
Search: Register FREE! | Login
Browse Songs:
Browse Bands:
Tool Panel
Discuss This Song

1 2 3 4 5



John Michael Montgomery - Sold (intro+solo) (Tab)
Album: John Michael Montgomery (1995)
Submitter: Stallion (0) on 3/11/02 2 comments
Month Views: 11 | Total Views: 20,430
Moderator: Ray Terry | Report This Song?
Song Tools

Comment

Songbook

Kudos

Show Chords

Print

John Michael Montgomery - Sold (intro + lead)

By Stallion ksteberg at tiscali.no

This the lick that is used as an intro and fill later in the song.
	:|  = repeat twice

I also put up the lead part. (right before the bridge)
Enjoy!


************************************************************************
p = pulloff	/ = slide up	h = hammer on

x = muted string	b = bend		bh = bend and hold

\ = slide down	! = harmonic	r = release bend

************************************************************************

      * repeat from here			                      
E-------------------------------------------------------:|
B-------------------------------------------------------:|
G-------------------------------------------------------:|
D--------------------------2-0--------------2-----------:|
A---------0-0--0-0-0-0h3h4--------0-0-0-3h4---4p2p0-----:|
E--3b-4h5----------------------3b-------------------3b--:|

This is the lick right before the bridge:
                  
E---------------------------------------------------------|
B--/5----------------------------------------------2---2--|
G-----8-7-5----------------------------------------2---2--|
D-----------7-6-5---7p5------------------------2h4---x----|
A-----------------7-----7-6-5--3/4-0-----0-3h4------------|
E------------------------------------0h3------------------|

The ending (note the fast part)

E-------------------------------------------------------
B-------------------------------------------------------
G-------------------------------------------------------
D--------------------------2-0--------------2-----------
A---------0-0--0-0-0-0h3h4--------0-0-0-3h4---4p2p0-----
E--3b-4h5----------------------3b-------------------3b--

                                    |****| These pull offs are fast!
E--------------------------------------------------------|
B--------------------------------------------------------|
G----------------------------2p0---0------------------2--|
D-----------------------2-0------2---2p1p0---0-2p0----2--|
A------0-0--0-0-0-0h3h4--------------------3----------0--|
E--4h5---------------------------------------------3b----|
			


 Comments (click here to add a non-facebook comment)
GREAT SONG

-ronair | 4/15/2005
thats pretty close and nice work!!
-mr.tele | 11/1/2005
Home | FAQs | Privacy | Terms | Advertise | Contact
Top 100 Tab Sites