Give Kudos?
Are you sure you want to give kudos to WildCard76?

Add To Songbook?
Are you sure you want to add this song to your songbook?


2,620 bands | 34,367 songs
Search: Register FREE! | Login
Browse Songs:
Browse Bands:
Tool Panel
Discuss This Song

1 2 3 4 5





John Schneider - Take The Long Way Home (Solo)
Submitter: WildCard76 (296) on 12/10/02
Month Views: 24 | Total Views: 2,160
Moderator: acebaker | Report This Song?
Song Tools

Comment

Songbook

Kudos

Show Chords

Print

-----------------------------------------------------------
-12----------12--------------------------12-13-12----------
----12-14-14----12-11-12-11-----------12----------12-------
----------------------------12-14--12----------------14-12-
-----------------------------------------------------------
-----------------------------------------------------------


-------------------------------------12-12--12-15-17-19-19----
-12-13-15--12-13-15--12-13-15--12-13-----------------------15-
--------------------------------------------------------------
--------------------------------------------------------------
--------------------------------------------------------------
--------------------------------------------------------------


-19-19-------------12-
-------14-14-16-16----
----------------------
----------------------
----------------------
----------------------
 Comments (click here to add a non-facebook comment)
Home | FAQs | Privacy | Terms | Advertise | Contact
Top 100 Tab Sites