Give Kudos?
Are you sure you want to give kudos to WildCard76?

Add To Songbook?
Are you sure you want to add this song to your songbook?


2,636 bands | 34,519 songs
Search: Register FREE! | Login
Browse Songs:
Browse Bands:
Tool Panel
Discuss This Song

1 2 3 4 5





Johnny Cash - Ring Of Fire (Intro)
Album: The Essential Johnny Cash (2002)
Submitter: WildCard76 (292) on 11/18/03 2 comments
Month Views: 37 | Total Views: 15,692
Moderator: JDNELSON | Report This Song?
Song Tools

Comment

Songbook

Kudos

Show Chords

Print

RING OF FIRE
Johnny Cash

Intro:

                 (G)              (C)       (G)          
      
E---7---8---9----10-10-10--10-10---12---8---10--------10----
B---8--10--11----12-12-12--12-12---13--10---12--------12----
G-----------------------------------------------------------
D-----------------------------------------------------------
A-----------------------------------------------------------
E-----------------------------------------------------------

                    (D7)   (G)

E----7-7-7---7--7---8---5---7------7------------------------
B----8-8-8---8--8--10---7---8------8------------------------
G-----------------------------------------------------------
D-----------------------------------------------------------
A-----------------------------------------------------------
E-----------------------------------------------------------
 Comments (click here to add a non-facebook comment)
Nice!
Keep Pickin'
JC
-txjonc | 12/7/2003
It should be noted that although the song is in 4/4 time there are some measures of 3/4, as in the intro. The chords would go G G C / G G G G / G G D / G G G G
-dukepeterson | 11/16/2015
Home | FAQs | Privacy | Terms | Advertise | Contact
Top 100 Tab Sites